  0
SECTION
  2
HEADER
  9
$ACADVER
  1
AC1015
  9
$ACADMAINTVER
 70
    20
  9
$DWGCODEPAGE
  3
ANSI_1252
  9
$INSBASE
 10
0.0
 20
0.0
 30
0.0
  9
$EXTMIN
 10
317.82579362316
 20
500.1397605509988
 30
0.0
  9
$EXTMAX
 10
320.7545883389612
 20
500.7275294901369
 30
0.0
  9
$LIMMIN
 10
0.0
 20
0.0
  9
$LIMMAX
 10
420.0
 20
297.0
  9
$ORTHOMODE
 70
     1
  9
$REGENMODE
 70
     1
  9
$FILLMODE
 70
     1
  9
$QTEXTMODE
 70
     0
  9
$MIRRTEXT
 70
     1
  9
$LTSCALE
 40
1.0
  9
$ATTMODE
 70
     1
  9
$TEXTSIZE
 40
2.5
  9
$TRACEWID
 40
1.0
  9
$TEXTSTYLE
  7
Standard
  9
$CLAYER
  8
INDUSA
  9
$CELTYPE
  6
ByLayer
  9
$CECOLOR
 62
   256
  9
$CELTSCALE
 40
1.0
  9
$DISPSILH
 70
     0
  9
$DIMSCALE
 40
1.0
  9
$DIMASZ
 40
2.5
  9
$DIMEXO
 40
0.625
  9
$DIMDLI
 40
3.75
  9
$DIMRND
 40
0.0
  9
$DIMDLE
 40
0.0
  9
$DIMEXE
 40
1.25
  9
$DIMTP
 40
0.0
  9
$DIMTM
 40
0.0
  9
$DIMTXT
 40
2.5
  9
$DIMCEN
 40
2.5
  9
$DIMTSZ
 40
0.0
  9
$DIMTOL
 70
     0
  9
$DIMLIM
 70
     0
  9
$DIMTIH
 70
     0
  9
$DIMTOH
 70
     0
  9
$DIMSE1
 70
     0
  9
$DIMSE2
 70
     0
  9
$DIMTAD
 70
     1
  9
$DIMZIN
 70
     8
  9
$DIMBLK
  1

  9
$DIMASO
 70
     1
  9
$DIMSHO
 70
     1
  9
$DIMPOST
  1

  9
$DIMAPOST
  1

  9
$DIMALT
 70
     0
  9
$DIMALTD
 70
     3
  9
$DIMALTF
 40
0.03937007874016
  9
$DIMLFAC
 40
1.0
  9
$DIMTOFL
 70
     1
  9
$DIMTVP
 40
0.0
  9
$DIMTIX
 70
     0
  9
$DIMSOXD
 70
     0
  9
$DIMSAH
 70
     0
  9
$DIMBLK1
  1

  9
$DIMBLK2
  1

  9
$DIMSTYLE
  2
ISO-25
  9
$DIMCLRD
 70
     0
  9
$DIMCLRE
 70
     0
  9
$DIMCLRT
 70
     0
  9
$DIMTFAC
 40
1.0
  9
$DIMGAP
 40
0.625
  9
$DIMJUST
 70
     0
  9
$DIMSD1
 70
     0
  9
$DIMSD2
 70
     0
  9
$DIMTOLJ
 70
     0
  9
$DIMTZIN
 70
     8
  9
$DIMALTZ
 70
     0
  9
$DIMALTTZ
 70
     0
  9
$DIMUPT
 70
     0
  9
$DIMDEC
 70
     2
  9
$DIMTDEC
 70
     2
  9
$DIMALTU
 70
     2
  9
$DIMALTTD
 70
     3
  9
$DIMTXSTY
  7
Standard
  9
$DIMAUNIT
 70
     0
  9
$DIMADEC
 70
     0
  9
$DIMALTRND
 40
0.0
  9
$DIMAZIN
 70
     0
  9
$DIMDSEP
 70
    44
  9
$DIMATFIT
 70
     3
  9
$DIMFRAC
 70
     0
  9
$DIMLDRBLK
  1

  9
$DIMLUNIT
 70
     2
  9
$DIMLWD
 70
    -2
  9
$DIMLWE
 70
    -2
  9
$DIMTMOVE
 70
     0
  9
$LUNITS
 70
     2
  9
$LUPREC
 70
     4
  9
$SKETCHINC
 40
1.0
  9
$FILLETRAD
 40
7.0
  9
$AUNITS
 70
     0
  9
$AUPREC
 70
     0
  9
$MENU
  1
.
  9
$ELEVATION
 40
0.0
  9
$PELEVATION
 40
0.0
  9
$THICKNESS
 40
0.0
  9
$LIMCHECK
 70
     0
  9
$CHAMFERA
 40
10.0
  9
$CHAMFERB
 40
10.0
  9
$CHAMFERC
 40
20.0
  9
$CHAMFERD
 40
0.0
  9
$SKPOLY
 70
     0
  9
$TDCREATE
 40
2452865.678357928
  9
$TDUCREATE
 40
2452865.636691262
  9
$TDUPDATE
 40
2453895.748552870
  9
$TDUUPDATE
 40
2453895.706886203
  9
$TDINDWG
 40
0.0224234954
  9
$TDUSRTIMER
 40
0.0224234954
  9
$USRTIMER
 70
     1
  9
$ANGBASE
 50
0.0
  9
$ANGDIR
 70
     0
  9
$PDMODE
 70
     0
  9
$PDSIZE
 40
0.0
  9
$PLINEWID
 40
0.0
  9
$SPLFRAME
 70
     0
  9
$SPLINETYPE
 70
     6
  9
$SPLINESEGS
 70
     8
  9
$HANDSEED
  5
CB9
  9
$SURFTAB1
 70
     6
  9
$SURFTAB2
 70
     6
  9
$SURFTYPE
 70
     6
  9
$SURFU
 70
     6
  9
$SURFV
 70
     6
  9
$UCSBASE
  2

  9
$UCSNAME
  2

  9
$UCSORG
 10
0.0
 20
0.0
 30
0.0
  9
$UCSXDIR
 10
1.0
 20
0.0
 30
0.0
  9
$UCSYDIR
 10
0.0
 20
1.0
 30
0.0
  9
$UCSORTHOREF
  2

  9
$UCSORTHOVIEW
 70
     0
  9
$UCSORGTOP
 10
0.0
 20
0.0
 30
0.0
  9
$UCSORGBOTTOM
 10
0.0
 20
0.0
 30
0.0
  9
$UCSORGLEFT
 10
0.0
 20
0.0
 30
0.0
  9
$UCSORGRIGHT
 10
0.0
 20
0.0
 30
0.0
  9
$UCSORGFRONT
 10
0.0
 20
0.0
 30
0.0
  9
$UCSORGBACK
 10
0.0
 20
0.0
 30
0.0
  9
$PUCSBASE
  2

  9
$PUCSNAME
  2

  9
$PUCSORG
 10
0.0
 20
0.0
 30
0.0
  9
$PUCSXDIR
 10
1.0
 20
0.0
 30
0.0
  9
$PUCSYDIR
 10
0.0
 20
1.0
 30
0.0
  9
$PUCSORTHOREF
  2

  9
$PUCSORTHOVIEW
 70
     0
  9
$PUCSORGTOP
 10
0.0
 20
0.0
 30
0.0
  9
$PUCSORGBOTTOM
 10
0.0
 20
0.0
 30
0.0
  9
$PUCSORGLEFT
 10
0.0
 20
0.0
 30
0.0
  9
$PUCSORGRIGHT
 10
0.0
 20
0.0
 30
0.0
  9
$PUCSORGFRONT
 10
0.0
 20
0.0
 30
0.0
  9
$PUCSORGBACK
 10
0.0
 20
0.0
 30
0.0
  9
$USERI1
 70
     0
  9
$USERI2
 70
     0
  9
$USERI3
 70
     0
  9
$USERI4
 70
     0
  9
$USERI5
 70
     0
  9
$USERR1
 40
0.0
  9
$USERR2
 40
0.0
  9
$USERR3
 40
0.0
  9
$USERR4
 40
0.0
  9
$USERR5
 40
0.0
  9
$WORLDVIEW
 70
     1
  9
$SHADEDGE
 70
     3
  9
$SHADEDIF
 70
    70
  9
$TILEMODE
 70
     1
  9
$MAXACTVP
 70
    64
  9
$PINSBASE
 10
0.0
 20
0.0
 30
0.0
  9
$PLIMCHECK
 70
     0
  9
$PEXTMIN
 10
1.000000000000000E+20
 20
1.000000000000000E+20
 30
1.000000000000000E+20
  9
$PEXTMAX
 10
-1.000000000000000E+20
 20
-1.000000000000000E+20
 30
-1.000000000000000E+20
  9
$PLIMMIN
 10
0.0
 20
0.0
  9
$PLIMMAX
 10
420.0
 20
297.0
  9
$UNITMODE
 70
     0
  9
$VISRETAIN
 70
     1
  9
$PLINEGEN
 70
     0
  9
$PSLTSCALE
 70
     1
  9
$TREEDEPTH
 70
  3020
  9
$CMLSTYLE
  2
Standard
  9
$CMLJUST
 70
     0
  9
$CMLSCALE
 40
20.0
  9
$PROXYGRAPHICS
 70
     1
  9
$MEASUREMENT
 70
     1
  9
$CELWEIGHT
370
    -1
  9
$ENDCAPS
280
     0
  9
$JOINSTYLE
280
     0
  9
$LWDISPLAY
290
     0
  9
$INSUNITS
 70
     4
  9
$HYPERLINKBASE
  1

  9
$STYLESHEET
  1

  9
$XEDIT
290
     1
  9
$CEPSNTYPE
380
     0
  9
$PSTYLEMODE
290
     1
  9
$FINGERPRINTGUID
  2
{E2C367B5-50D3-45A2-B24A-BA551A7C75BB}
  9
$VERSIONGUID
  2
{0DC4FD10-5E44-4AE3-AEC1-D271EAF67D8A}
  9
$EXTNAMES
290
     1
  9
$PSVPSCALE
 40
0.0
  9
$OLESTARTUP
290
     0
  0
ENDSEC
  0
SECTION
  2
CLASSES
  0
CLASS
  1
ACDBDICTIONARYWDFLT
  2
AcDbDictionaryWithDefault
  3
ObjectDBX Classes
 90
        0
280
     0
281
     0
  0
CLASS
  1
ACDBPLACEHOLDER
  2
AcDbPlaceHolder
  3
ObjectDBX Classes
 90
        0
280
     0
281
     0
  0
CLASS
  1
LAYOUT
  2
AcDbLayout
  3
ObjectDBX Classes
 90
        0
280
     0
281
     0
  0
CLASS
  1
DIMASSOC
  2
AcDbDimAssoc
  3
"AcDbDimAssoc|Product Desc:     AcDim ARX App For Dimension|Company:          Autodesk, Inc.|WEB Address:      www.autodesk.com"
 90
    32768
280
     0
281
     0
  0
CLASS
  1
DICTIONARYVAR
  2
AcDbDictionaryVar
  3
ObjectDBX Classes
 90
        0
280
     0
281
     0
  0
CLASS
  1
TABLESTYLE
  2
AcDbTableStyle
  3
ObjectDBX Classes
 90
     2047
280
     0
281
     0
  0
ENDSEC
  0
SECTION
  2
TABLES
  0
TABLE
  2
VPORT
  5
8
330
0
100
AcDbSymbolTable
 70
     2
  0
VPORT
  5
CB1
330
8
100
AcDbSymbolTableRecord
100
AcDbViewportTableRecord
  2
*Active
 70
     0
 10
0.0
 20
0.0
 11
1.0
 21
1.0
 12
319.2537125457765
 22
500.283607236251
 13
0.0
 23
0.0
 14
10.0
 24
10.0
 15
10.0
 25
10.0
 16
0.0
 26
0.0
 36
1.0
 17
0.0
 27
0.0
 37
0.0
 40
2.309828030719074
 41
1.593939393939393
 42
50.0
 43
0.0
 44
0.0
 50
0.0
 51
0.0
 71
     0
 72
   100
 73
     1
 74
     3
 75
     0
 76
     0
 77
     0
 78
     0
281
     0
 65
     1
110
0.0
120
0.0
130
0.0
111
1.0
121
0.0
131
0.0
112
0.0
122
1.0
132
0.0
 79
     0
146
0.0
  0
ENDTAB
  0
TABLE
  2
LTYPE
  5
5
330
0
100
AcDbSymbolTable
 70
     4
  0
LTYPE
  5
14
330
5
100
AcDbSymbolTableRecord
100
AcDbLinetypeTableRecord
  2
ByBlock
 70
     0
  3

 72
    65
 73
     0
 40
0.0
  0
LTYPE
  5
15
330
5
100
AcDbSymbolTableRecord
100
AcDbLinetypeTableRecord
  2
ByLayer
 70
     0
  3

 72
    65
 73
     0
 40
0.0
  0
LTYPE
  5
16
330
5
100
AcDbSymbolTableRecord
100
AcDbLinetypeTableRecord
  2
Continuous
 70
     0
  3
Solid line
 72
    65
 73
     0
 40
0.0
  0
LTYPE
  5
20C
330
5
100
AcDbSymbolTableRecord
100
AcDbLinetypeTableRecord
  2
HIDDEN
 70
     0
  3
Hidden __ __ __ __ __ __ __ __ __ __ __ __ __ _
 72
    65
 73
     2
 40
9.524999999999998
 49
6.349999999999999
 74
     0
 49
-3.174999999999999
 74
     0
  0
LTYPE
  5
20D
330
5
100
AcDbSymbolTableRecord
100
AcDbLinetypeTableRecord
  2
CENTER
 70
     0
  3
Center ____ _ ____ _ ____ _ ____ _ ____ _ ____
 72
    65
 73
     4
 40
10.16
 49
6.349999999999999
 74
     0
 49
-1.27
 74
     0
 49
1.27
 74
     0
 49
-1.27
 74
     0
  0
LTYPE
  5
20E
330
5
100
AcDbSymbolTableRecord
100
AcDbLinetypeTableRecord
  2
ACISOWELD
 70
     0
  3
_ _ _ _ _
 72
    65
 73
     2
 40
2.0
 49
2.0
 74
     0
 49
-1.0
 74
     0
  0
ENDTAB
  0
TABLE
  2
LAYER
  5
2
330
0
100
AcDbSymbolTable
 70
     9
  0
LAYER
  5
10
330
2
100
AcDbSymbolTableRecord
100
AcDbLayerTableRecord
  2
0
 70
     0
 62
     7
  6
Continuous
370
    -3
390
F
  0
LAYER
  5
20F
330
2
100
AcDbSymbolTableRecord
100
AcDbLayerTableRecord
  2
3
 70
     0
 62
     3
  6
Continuous
370
    -3
390
F
  0
LAYER
  5
210
330
2
100
AcDbSymbolTableRecord
100
AcDbLayerTableRecord
  2
Defpoints
 70
     0
 62
     7
  6
Continuous
290
     0
370
    -3
390
F
  0
LAYER
  5
211
330
2
100
AcDbSymbolTableRecord
100
AcDbLayerTableRecord
  2
9
 70
     0
 62
     9
  6
Continuous
370
    -3
390
F
  0
LAYER
  5
212
330
2
100
AcDbSymbolTableRecord
100
AcDbLayerTableRecord
  2
hatch
 70
     0
 62
     9
  6
Continuous
370
    -3
390
F
  0
LAYER
  5
213
330
2
100
AcDbSymbolTableRecord
100
AcDbLayerTableRecord
  2
INDUSA
 70
     0
 62
     3
  6
Continuous
370
    -3
390
F
  0
LAYER
  5
214
330
2
100
AcDbSymbolTableRecord
100
AcDbLayerTableRecord
  2
COTAS
 70
     0
 62
     1
  6
Continuous
370
    -3
390
F
  0
LAYER
  5
215
330
2
100
AcDbSymbolTableRecord
100
AcDbLayerTableRecord
  2
INDUSA HID
 70
     0
 62
     9
  6
HIDDEN
370
    -3
390
F
  0
LAYER
  5
216
330
2
100
AcDbSymbolTableRecord
100
AcDbLayerTableRecord
  2
INDUSA CEN
 70
     0
 62
     9
  6
CENTER
370
    -3
390
F
  0
ENDTAB
  0
TABLE
  2
STYLE
  5
3
330
0
100
AcDbSymbolTable
 70
     2
  0
STYLE
  5
11
330
3
100
AcDbSymbolTableRecord
100
AcDbTextStyleTableRecord
  2
Standard
 70
     0
 40
0.0
 41
1.0
 50
0.0
 71
     0
 42
2.5
  3
txt
  4

  0
STYLE
  5
217
330
3
100
AcDbSymbolTableRecord
100
AcDbTextStyleTableRecord
  2
SANINDUSA
 70
     0
 40
0.0
 41
1.0
 50
0.0
 71
     0
 42
2.5
  3
simplex.shx
  4

  0
ENDTAB
  0
TABLE
  2
VIEW
  5
6
330
0
100
AcDbSymbolTable
 70
     0
  0
ENDTAB
  0
TABLE
  2
UCS
  5
7
330
0
100
AcDbSymbolTable
 70
     0
  0
ENDTAB
  0
TABLE
  2
APPID
  5
9
330
0
100
AcDbSymbolTable
 70
     2
  0
APPID
  5
12
330
9
100
AcDbSymbolTableRecord
100
AcDbRegAppTableRecord
  2
ACAD
 70
     0
  0
APPID
  5
C85
330
9
100
AcDbSymbolTableRecord
100
AcDbRegAppTableRecord
  2
DCO15
 70
     0
  0
ENDTAB
  0
TABLE
  2
DIMSTYLE
  5
A
330
0
100
AcDbSymbolTable
 70
     2
100
AcDbDimStyleTable
 71
     1
340
27
  0
DIMSTYLE
105
27
330
A
100
AcDbSymbolTableRecord
100
AcDbDimStyleTableRecord
  2
ISO-25
 70
     0
 41
2.5
 42
0.625
 43
3.75
 44
1.25
 73
     0
 74
     0
 77
     1
 78
     8
140
2.5
141
2.5
143
0.03937007874016
147
0.625
171
     3
172
     1
271
     2
272
     2
274
     3
278
    44
283
     0
284
     8
340
11
  0
DIMSTYLE
105
218
330
A
100
AcDbSymbolTableRecord
100
AcDbDimStyleTableRecord
  2
SANINDUSA
 70
     0
 41
3.0
 42
1.0
 43
1.0
 44
1.0
 73
     0
 74
     0
 77
     1
 78
     8
140
2.0
141
0.0
143
0.03937007874016
147
1.0
171
     3
172
     1
176
     1
177
     1
178
     1
179
     1
271
     1
272
     1
274
     3
278
    44
283
     0
284
     8
340
217
371
    -1
372
    -1
  0
ENDTAB
  0
TABLE
  2
BLOCK_RECORD
  5
1
330
0
100
AcDbSymbolTable
 70
    85
  0
BLOCK_RECORD
  5
1F
330
1
100
AcDbSymbolTableRecord
100
AcDbBlockTableRecord
  2
*Model_Space
340
22
  0
BLOCK_RECORD
  5
1B
330
1
100
AcDbSymbolTableRecord
100
AcDbBlockTableRecord
  2
*Paper_Space
340
1E
  0
BLOCK_RECORD
  5
23
330
1
100
AcDbSymbolTableRecord
100
AcDbBlockTableRecord
  2
*Paper_Space0
340
26
  0
ENDTAB
  0
ENDSEC
  0
SECTION
  2
BLOCKS
  0
BLOCK
  5
20
330
1F
100
AcDbEntity
  8
0
100
AcDbBlockBegin
  2
*Model_Space
 70
     0
 10
0.0
 20
0.0
 30
0.0
  3
*Model_Space
  1

  0
ENDBLK
  5
21
330
1F
100
AcDbEntity
  8
0
100
AcDbBlockEnd
  0
BLOCK
  5
1C
330
1B
100
AcDbEntity
 67
     1
  8
0
100
AcDbBlockBegin
  2
*Paper_Space
 70
     0
 10
0.0
 20
0.0
 30
0.0
  3
*Paper_Space
  1

  0
ENDBLK
  5
1D
330
1B
100
AcDbEntity
 67
     1
  8
0
100
AcDbBlockEnd
  0
BLOCK
  5
24
330
23
100
AcDbEntity
 67
     1
  8
0
100
AcDbBlockBegin
  2
*Paper_Space0
 70
     0
 10
0.0
 20
0.0
 30
0.0
  3
*Paper_Space0
  1

  0
ENDBLK
  5
25
330
23
100
AcDbEntity
 67
     1
  8
0
100
AcDbBlockEnd
  0
ENDSEC
  0
SECTION
  2
ENTITIES
  0
LINE
  5
61C
330
1F
100
AcDbEntity
  8
INDUSA
100
AcDbLine
 10
318.7932594428805
 20
500.5797808196223
 30
0.0
 11
318.7140972850537
 21
500.5797808196223
 31
0.0
  0
ARC
  5
637
330
1F
100
AcDbEntity
  8
INDUSA
100
AcDbCircle
 10
318.6702166817608
 20
500.372888550958
 30
0.0
 40
0.0181380720146535
100
AcDbArc
 50
229.4730030181862
 51
264.1392911264737
  0
ARC
  5
639
330
1F
100
AcDbEntity
  8
INDUSA
100
AcDbCircle
 10
318.8343597985528
 20
500.3793772771979
 30
0.0
 40
0.0249655189590119
100
AcDbArc
 50
280.6931561534628
 51
305.6945497018631
  0
ARC
  5
63B
330
1F
100
AcDbEntity
  8
INDUSA
100
AcDbCircle
 10
318.9165426141975
 20
500.5010301630641
 30
0.0
 40
0.0343442379396799
100
AcDbArc
 50
88.78209561447263
 51
100.9624190504298
  0
ARC
  5
63D
330
1F
100
AcDbEntity
  8
INDUSA
100
AcDbCircle
 10
318.5908245791733
 20
500.5011529355809
 30
0.0
 40
0.0342217180964714
100
AcDbArc
 50
79.01569415164328
 51
91.23979118347719
  0
LWPOLYLINE
  5
641
330
1F
100
AcDbEntity
  8
INDUSA
  6
Continuous
100
AcDbPolyline
 90
        9
 70
   128
 43
0.0
 10
318.607544260745
 20
500.223785160593
 10
318.6071809030623
 20
500.2238201357929
 10
318.6068302538872
 20
500.2239238381279
 10
318.6065045772447
 20
500.2240926405881
 10
318.6062152637404
 20
500.2243206392738
 10
318.6059724321719
 20
500.2245998598853
 10
318.6057845756219
 20
500.224920536626
 10
318.6056582644108
 20
500.2252714537627
 10
318.6055979162984
 20
500.2256403378985
  0
LWPOLYLINE
  5
642
330
1F
100
AcDbEntity
  8
INDUSA
  6
Continuous
100
AcDbPolyline
 90
        5
 70
   128
 43
0.0
 10
318.6585793446752
 20
500.354902333151
 10
318.6585299999309
 20
500.3559553444763
 10
318.6584887038898
 20
500.3570062722347
 10
318.6584554593633
 20
500.3580564540845
 10
318.6584304488575
 20
500.3591018047734
  0
LWPOLYLINE
  5
643
330
1F
100
AcDbEntity
  8
INDUSA
  6
Continuous
100
AcDbPolyline
 90
        5
 70
   128
 43
0.0
 10
318.5913050435757
 20
500.4285883283506
 10
318.5934404735506
 20
500.4256427223244
 10
318.595083689674
 20
500.4222618703358
 10
318.5960552693575
 20
500.4189117143844
 10
318.596470528109
 20
500.415348114767
  0
LWPOLYLINE
  5
644
330
1F
100
AcDbEntity
  8
INDUSA
  6
Continuous
100
AcDbPolyline
 90
        5
 70
   128
 43
0.0
 10
318.6565559061684
 20
500.3675702514772
 10
318.6562261904309
 20
500.3682064241932
 10
318.6559060314829
 20
500.3688308779184
 10
318.6555953547377
 20
500.3694438949239
 10
318.6552951058475
 20
500.3700437483392
  0
LWPOLYLINE
  5
646
330
1F
100
AcDbEntity
  8
INDUSA
  6
Continuous
100
AcDbPolyline
 90
        7
 70
   128
 43
0.0
 10
318.6584304488575
 20
500.3591018047734
 10
318.6583250580601
 20
500.3609805588915
 10
318.6580784506617
 20
500.3628000262328
 10
318.6578025666372
 20
500.364103693663
 10
318.6574556036633
 20
500.3653315557626
 10
318.6570354494179
 20
500.3664971821128
 10
318.6565559061684
 20
500.3675702514772
  0
LWPOLYLINE
  5
647
330
1F
100
AcDbEntity
  8
INDUSA
  6
Continuous
100
AcDbPolyline
 90
        5
 70
   128
 43
0.0
 10
318.6584304488575
 20
500.3591018047734
 10
318.648801371019
 20
500.3679145505306
 10
318.6276039741037
 20
500.3872468427283
 10
318.6064023870118
 20
500.4064342727231
 10
318.596470528109
 20
500.415348114767
  0
LWPOLYLINE
  5
648
330
1F
100
AcDbEntity
  8
INDUSA
  6
Continuous
100
AcDbPolyline
 90
        5
 70
   128
 43
0.0
 10
318.596470528109
 20
500.415348114767
 10
318.5980456108746
 20
500.3638021814568
 10
318.6002927017996
 20
500.3122816178637
 10
318.603213454966
 20
500.2607953488787
 10
318.6055979162984
 20
500.2256403378985
  0
LINE
  5
649
330
1F
100
AcDbEntity
  8
INDUSA
  6
Continuous
100
AcDbLine
 10
318.6775251190371
 20
500.223785160593
 30
0.0
 11
318.6698092886471
 21
500.223785160593
 31
0.0
  0
LWPOLYLINE
  5
64A
330
1F
100
AcDbEntity
  8
INDUSA
  6
Continuous
100
AcDbPolyline
 90
        9
 70
   128
 43
0.0
 10
318.6698092886471
 20
500.223785160593
 10
318.6694587338693
 20
500.2238176911446
 10
318.6691195828319
 20
500.2239142245624
 10
318.668802868305
 20
500.2240716205612
 10
318.6685188931869
 20
500.2242847589623
 10
318.6682768953449
 20
500.224546706256
 10
318.6680847471021
 20
500.2248489411523
 10
318.667948699147
 20
500.2251816317833
 10
318.6678731771944
 20
500.2255339555396
  0
LINE
  5
64C
330
1F
100
AcDbEntity
  8
INDUSA
  6
Continuous
100
AcDbLine
 10
318.7564987742616
 20
500.2038417747399
 30
0.0
 11
318.7536783639785
 21
500.2037603039243
 31
0.0
  0
LINE
  5
64D
330
1F
100
AcDbEntity
  8
INDUSA
  6
Continuous
100
AcDbLine
 10
318.7508579536726
 20
500.2038417747399
 30
0.0
 11
318.7536783667723
 21
500.2037603044961
 31
0.0
  0
LWPOLYLINE
  5
64E
330
1F
100
AcDbEntity
  8
INDUSA
  6
Continuous
100
AcDbPolyline
 90
       11
 70
   128
 43
0.0
 10
318.7131243613777
 20
500.223785160593
 10
318.7139283762543
 20
500.2225496046358
 10
318.7176170773429
 20
500.2182016739397
 10
318.721963344068
 20
500.214240176712
 10
318.7269754150581
 20
500.2107472546324
 10
318.7325294379643
 20
500.207881978251
 10
318.7361105989813
 20
500.2064923280812
 10
318.739822959578
 20
500.2053831167437
 10
318.7435957295335
 20
500.2045727135999
 10
318.7474248046308
 20
500.2040556289869
 10
318.7508585082975
 20
500.203852366461
  0
LINE
  5
64F
330
1F
100
AcDbEntity
  8
INDUSA
  6
Continuous
100
AcDbLine
 10
318.7536783639671
 20
500.223785160593
 30
0.0
 11
318.6775251190371
 21
500.223785160593
 31
0.0
  0
LWPOLYLINE
  5
651
330
1F
100
AcDbEntity
  8
INDUSA
  6
Continuous
100
AcDbPolyline
 90
        5
 70
   128
 43
0.0
 10
318.7536783639671
 20
500.3542809300144
 10
318.7190214088929
 20
500.3544039109219
 10
318.6949260312687
 20
500.3545731875918
 10
318.6708313004714
 20
500.354816026554
 10
318.6683645962308
 20
500.3548452853002
  0
LINE
  5
653
330
1F
100
AcDbEntity
  8
INDUSA
  6
Continuous
100
AcDbLine
 10
318.8298316088971
 20
500.223785160593
 30
0.0
 11
318.8375474392872
 21
500.223785160593
 31
0.0
  0
LWPOLYLINE
  5
655
330
1F
100
AcDbEntity
  8
INDUSA
  6
Continuous
100
AcDbPolyline
 90
        9
 70
   128
 43
0.0
 10
318.8375474392872
 20
500.223785160593
 10
318.8378979940649
 20
500.2238176911446
 10
318.8382371451023
 20
500.2239142245624
 10
318.8385538596292
 20
500.2240716205612
 10
318.8388378347473
 20
500.2242847589623
 10
318.8390798325893
 20
500.224546706256
 10
318.8392719808321
 20
500.2248489411523
 10
318.8394080287872
 20
500.2251816317833
 10
318.8394835507398
 20
500.2255339555396
  0
LINE
  5
657
330
1F
100
AcDbEntity
  8
INDUSA
  6
Continuous
100
AcDbLine
 10
318.8487773832591
 20
500.354902333151
 30
0.0
 11
318.8489262790767
 21
500.3591018047734
 31
0.0
  0
LWPOLYLINE
  5
659
330
1F
100
AcDbEntity
  8
INDUSA
  6
Continuous
100
AcDbPolyline
 90
        6
 70
   128
 43
0.0
 10
318.8394835507398
 20
500.2255339555396
 10
318.8424546893083
 20
500.2594878236352
 10
318.8443087298102
 20
500.2832509431285
 10
318.8459821110843
 20
500.3070858272199
 10
318.8474718026829
 20
500.330966609025
 10
318.8487773832591
 20
500.354902333151
  0
LWPOLYLINE
  5
65A
330
1F
100
AcDbEntity
  8
INDUSA
  6
Continuous
100
AcDbPolyline
 90
       11
 70
   128
 43
0.0
 10
318.7564982237931
 20
500.2038523305438
 10
318.7599213782083
 20
500.2040546155488
 10
318.763733806794
 20
500.2045679687802
 10
318.7674879847898
 20
500.2053713937798
 10
318.7711839998246
 20
500.2064710232366
 10
318.7747565392919
 20
500.2078511960755
 10
318.7803166637303
 20
500.2107082902385
 10
318.7853637697707
 20
500.2142165517045
 10
318.7897435017807
 20
500.2182055480771
 10
318.7934300447894
 20
500.2225517581637
 10
318.7942344563294
 20
500.223785160593
  0
LWPOLYLINE
  5
65B
330
1F
100
AcDbEntity
  8
INDUSA
  6
Continuous
100
AcDbPolyline
 90
        5
 70
   128
 43
0.0
 10
318.7536783639671
 20
500.3542809300144
 10
318.7883353190413
 20
500.3544039109219
 10
318.8124306966655
 20
500.3545731875918
 10
318.8365254274628
 20
500.354816026554
 10
318.8389921317034
 20
500.3548452853002
  0
LINE
  5
65C
330
1F
100
AcDbEntity
  8
INDUSA
  6
Continuous
100
AcDbLine
 10
318.7536783639671
 20
500.223785160593
 30
0.0
 11
318.8298316088971
 21
500.223785160593
 31
0.0
  0
LINE
  5
65D
330
1F
100
AcDbEntity
  8
INDUSA
  6
Continuous
100
AcDbLine
 10
318.8508008217659
 20
500.3675702514772
 30
0.0
 11
318.8520616220867
 21
500.3700437483392
 31
0.0
  0
LWPOLYLINE
  5
662
330
1F
100
AcDbEntity
  8
INDUSA
  6
Continuous
100
AcDbPolyline
 90
        4
 70
   128
 43
0.0
 10
318.8489262790767
 20
500.3591018047734
 10
318.8492782772725
 20
500.3628000262328
 10
318.8499011242709
 20
500.3653315557626
 10
318.8508008217659
 20
500.3675702514772
  0
LWPOLYLINE
  5
665
330
1F
100
AcDbEntity
  8
INDUSA
  6
Continuous
100
AcDbPolyline
 90
        7
 70
   128
 43
0.0
 10
318.6678731771944
 20
500.2255339555396
 10
318.6663421055152
 20
500.2424895238196
 10
318.6649020386259
 20
500.2594878236352
 10
318.663047998124
 20
500.2832509431285
 10
318.6613746168499
 20
500.3070858272199
 10
318.6598849252513
 20
500.330966609025
 10
318.6585793446752
 20
500.354902333151
  0
LINE
  5
666
330
1F
100
AcDbEntity
  8
INDUSA
  6
Continuous
100
AcDbLine
 10
318.6698092886471
 20
500.223785160593
 30
0.0
 11
318.607544260745
 21
500.223785160593
 31
0.0
  0
LWPOLYLINE
  5
667
330
1F
100
AcDbEntity
  8
INDUSA
  6
Continuous
100
AcDbPolyline
 90
        9
 70
   128
 43
0.0
 10
318.8998124671892
 20
500.223785160593
 10
318.9001758248719
 20
500.2238201357929
 10
318.9005264740469
 20
500.2239238381279
 10
318.9008521506896
 20
500.2240926405881
 10
318.9011414641939
 20
500.2243206392738
 10
318.9013842957623
 20
500.2245998598853
 10
318.9015721523123
 20
500.224920536626
 10
318.9016984635234
 20
500.2252714537627
 10
318.9017588116358
 20
500.2256403378985
  0
LWPOLYLINE
  5
668
330
1F
100
AcDbEntity
  8
INDUSA
  6
Continuous
100
AcDbPolyline
 90
        5
 70
   128
 43
0.0
 10
318.9160516843585
 20
500.4285883283506
 10
318.9139162543837
 20
500.4256427223244
 10
318.9122730382602
 20
500.4222618703358
 10
318.9113014585768
 20
500.4189117143844
 10
318.9108861998252
 20
500.415348114767
  0
LWPOLYLINE
  5
669
330
1F
100
AcDbEntity
  8
INDUSA
  6
Continuous
100
AcDbPolyline
 90
        5
 70
   128
 43
0.0
 10
318.9108861998252
 20
500.415348114767
 10
318.9093111170596
 20
500.3638021814568
 10
318.9070640261345
 20
500.3122816178637
 10
318.9041432729681
 20
500.2607953488787
 10
318.9017588116358
 20
500.2256403378985
  0
LWPOLYLINE
  5
66B
330
1F
100
AcDbEntity
  8
INDUSA
  6
Continuous
100
AcDbPolyline
 90
        5
 70
   128
 43
0.0
 10
318.8489262790767
 20
500.3591018047734
 10
318.8585553569152
 20
500.3679145505306
 10
318.8797527538305
 20
500.3872468427283
 10
318.9009543409225
 20
500.4064342727231
 10
318.9108861998252
 20
500.415348114767
  0
LINE
  5
66C
330
1F
100
AcDbEntity
  8
INDUSA
  6
Continuous
100
AcDbLine
 10
318.8375474392872
 20
500.223785160593
 30
0.0
 11
318.8998124671892
 21
500.223785160593
 31
0.0
  0
LINE
  5
66D
330
1F
100
AcDbEntity
  8
INDUSA
  6
Continuous
100
AcDbLine
 10
318.5240588525436
 20
500.5687934068033
 30
0.0
 11
318.5234604628838
 21
500.5677246932448
 31
0.0
  0
LWPOLYLINE
  5
66E
330
1F
100
AcDbEntity
  8
INDUSA
  6
Continuous
100
AcDbPolyline
 90
        5
 70
   128
 43
0.0
 10
318.5325062327457
 20
500.573785160593
 10
318.5292655217259
 20
500.5732180753704
 10
318.5263917687266
 20
500.5715799019841
 10
318.5251197386993
 20
500.5703215661554
 10
318.5240588525436
 20
500.5687934068033
  0
LWPOLYLINE
  5
66F
330
1F
100
AcDbEntity
  8
INDUSA
  6
Continuous
100
AcDbPolyline
 90
        7
 70
   128
 43
0.0
 10
318.5234604628838
 20
500.5677246932448
 10
318.5220777250759
 20
500.5647263115847
 10
318.5211768847933
 20
500.5614398773455
 10
318.5208339847479
 20
500.5581380480784
 10
318.5210408556768
 20
500.5547280449718
 10
318.5213679117391
 20
500.5529990699783
 10
318.5218463123036
 20
500.5512936372016
  0
LWPOLYLINE
  5
678
330
1F
100
AcDbEntity
  8
INDUSA
  6
Continuous
100
AcDbPolyline
 90
        8
 70
   128
 43
0.0
 10
318.5965136509181
 20
500.574424966358
 10
318.5963623928657
 20
500.5743927067618
 10
318.5959591471262
 20
500.5743224303309
 10
318.5952376377982
 20
500.5742189236443
 10
318.5941764719568
 20
500.5740910122125
 10
318.5927968380103
 20
500.5739475433233
 10
318.5911288382722
 20
500.5737943165936
 10
318.5910175967216
 20
500.573785160593
  0
LWPOLYLINE
  5
67B
330
1F
100
AcDbEntity
  8
INDUSA
  6
Continuous
100
AcDbPolyline
 90
        9
 70
   128
 43
0.0
 10
318.5952263076977
 20
500.5666790194517
 10
318.5957998811788
 20
500.5681639369711
 10
318.5965988940799
 20
500.5695374826198
 10
318.5976030239288
 20
500.5707647209878
 10
318.5987867312118
 20
500.5718144379137
 10
318.6001199089575
 20
500.5726599344005
 10
318.6015686484923
 20
500.5732797056903
 10
318.6030961018892
 20
500.5736579882268
 10
318.6046634191757
 20
500.573785160593
  0
LINE
  5
681
330
1F
100
AcDbEntity
  8
INDUSA
  6
Continuous
100
AcDbLine
 10
318.5683348485609
 20
500.573785160593
 30
0.0
 11
318.5910175967216
 21
500.573785160593
 31
0.0
  0
LINE
  5
685
330
1F
100
AcDbEntity
  8
INDUSA
  6
Continuous
100
AcDbLine
 10
318.6135366472629
 20
500.5796858295351
 30
0.0
 11
318.6123090894975
 21
500.5794777312713
 31
0.0
  0
LWPOLYLINE
  5
688
330
1F
100
AcDbEntity
  8
INDUSA
  6
Continuous
100
AcDbPolyline
 90
        3
 70
   128
 43
0.0
 10
318.6123061343277
 20
500.579494990238
 10
318.6096636084718
 20
500.5786489701887
 10
318.5965136509181
 20
500.5744249663579
  0
LWPOLYLINE
  5
68D
330
1F
100
AcDbEntity
  8
INDUSA
  6
Continuous
100
AcDbPolyline
 90
        7
 70
   128
 43
0.0
 10
318.5900841324269
 20
500.5353666423092
 10
318.5771774961934
 20
500.5384265993236
 10
318.5642872018022
 20
500.5414893508265
 10
318.5566107820917
 20
500.543311672561
 10
318.5489467186885
 20
500.5451241022507
 10
318.5353488262839
 20
500.5482940313997
 10
318.5218463123036
 20
500.5512936372016
  0
LINE
  5
68E
330
1F
100
AcDbEntity
  8
INDUSA
  6
Continuous
100
AcDbLine
 10
318.5325062327457
 20
500.573785160593
 30
0.0
 11
318.5683361662871
 21
500.573785160593
 31
0.0
  0
LINE
  5
68F
330
1F
100
AcDbEntity
  8
INDUSA
  6
Continuous
100
AcDbLine
 10
318.8938200806713
 20
500.5796858295351
 30
0.0
 11
318.8950477707428
 21
500.5794777088425
 31
0.0
  0
LWPOLYLINE
  5
693
330
1F
100
AcDbEntity
  8
INDUSA
  6
Continuous
100
AcDbPolyline
 90
        3
 70
   128
 43
0.0
 10
318.7932594428805
 20
500.5797808196223
 10
318.8370782797194
 20
500.5797367171613
 10
318.8938200806713
 20
500.5796858295351
  0
LWPOLYLINE
  5
697
330
1F
100
AcDbEntity
  8
INDUSA
  6
Continuous
100
AcDbPolyline
 90
        9
 70
   128
 43
0.0
 10
318.7536783639671
 20
500.5353615339407
 10
318.7380717355014
 20
500.5353927864093
 10
318.7224660974108
 20
500.5354044565063
 10
318.6991991701295
 20
500.53538550411
 10
318.6759626797297
 20
500.5353225758538
 10
318.6529585055307
 20
500.5352159350247
 10
318.6300260075394
 20
500.5350630536674
 10
318.6136561954493
 20
500.5349212885899
 10
318.5973451889732
 20
500.5347476916793
  0
LWPOLYLINE
  5
69B
330
1F
100
AcDbEntity
  8
INDUSA
  6
Continuous
100
AcDbPolyline
 90
        3
 70
   128
 43
0.0
 10
318.7140972850537
 20
500.5797808196223
 10
318.6702784482148
 20
500.5797367171613
 10
318.6135366472629
 20
500.5796858295351
  0
LWPOLYLINE
  5
6A3
330
1F
100
AcDbEntity
  8
INDUSA
  6
Continuous
100
AcDbPolyline
 90
        8
 70
   128
 43
0.0
 10
318.9163387945557
 20
500.573785160593
 10
318.9162351207582
 20
500.5737936885223
 10
318.9145363791941
 20
500.5739498393317
 10
318.9130974998595
 20
500.5741003009617
 10
318.9119848924579
 20
500.5742368231803
 10
318.9112857309006
 20
500.5743405856057
 10
318.9109220531315
 20
500.5744073486678
 10
318.9108512892468
 20
500.574423242688
  0
LINE
  5
6A6
330
1F
100
AcDbEntity
  8
INDUSA
  6
Continuous
100
AcDbLine
 10
318.9026933087585
 20
500.573785160593
 30
0.0
 11
318.8967271218576
 21
500.573785160593
 31
0.0
  0
LWPOLYLINE
  5
6A8
330
1F
100
AcDbEntity
  8
INDUSA
  6
Continuous
100
AcDbPolyline
 90
        9
 70
   128
 43
0.0
 10
318.9121304202365
 20
500.5666790194517
 10
318.9115568467554
 20
500.5681639369711
 10
318.9107578338542
 20
500.5695374826198
 10
318.9097537040054
 20
500.5707647209878
 10
318.9085699967224
 20
500.5718144379137
 10
318.9072368189767
 20
500.5726599344005
 10
318.905788079442
 20
500.5732797056903
 10
318.904260626045
 20
500.5736579882268
 10
318.9026933087585
 20
500.573785160593
  0
LINE
  5
6AF
330
1F
100
AcDbEntity
  8
INDUSA
  6
Continuous
100
AcDbLine
 10
318.9390205616471
 20
500.573785160593
 30
0.0
 11
318.937130289662
 21
500.573779722572
 31
0.0
  0
LINE
  5
6B1
330
1F
100
AcDbEntity
  8
INDUSA
  6
Continuous
100
AcDbLine
 10
318.9390218793733
 20
500.573785160593
 30
0.0
 11
318.9163387945557
 21
500.573785160593
 31
0.0
  0
LWPOLYLINE
  5
6B4
330
1F
100
AcDbEntity
  8
INDUSA
  6
Continuous
100
AcDbPolyline
 90
        5
 70
   128
 43
0.0
 10
318.9748504951885
 20
500.573785160593
 10
318.9780912062083
 20
500.5732180753704
 10
318.9809649592076
 20
500.5715799019841
 10
318.982236989235
 20
500.5703215661554
 10
318.9832978753906
 20
500.5687934068033
  0
LINE
  5
6B5
330
1F
100
AcDbEntity
  8
INDUSA
  6
Continuous
100
AcDbLine
 10
318.9832978753906
 20
500.5687934068033
 30
0.0
 11
318.9838962650504
 21
500.5677246932448
 31
0.0
  0
LWPOLYLINE
  5
6B6
330
1F
100
AcDbEntity
  8
INDUSA
  6
Continuous
100
AcDbPolyline
 90
        6
 70
   128
 43
0.0
 10
318.9838962650504
 20
500.5677246932448
 10
318.9852790028583
 20
500.5647263115847
 10
318.9861798431408
 20
500.5614398773455
 10
318.9865227431864
 20
500.5581380480784
 10
318.9863158722574
 20
500.5547280449718
 10
318.9855104156306
 20
500.5512936372016
  0
LWPOLYLINE
  5
6B9
330
1F
100
AcDbEntity
  8
INDUSA
  6
Continuous
100
AcDbPolyline
 90
        5
 70
   128
 43
0.0
 10
318.9172725955073
 20
500.5353666423092
 10
318.943069526132
 20
500.5414893508265
 10
318.9584100092457
 20
500.5451241022507
 10
318.9720079016503
 20
500.5482940313997
 10
318.9855104156306
 20
500.5512936372016
  0
LINE
  5
6BA
330
1F
100
AcDbEntity
  8
INDUSA
  6
Continuous
100
AcDbLine
 10
318.9748504951885
 20
500.573785160593
 30
0.0
 11
318.9390205616471
 21
500.573785160593
 31
0.0
  0
LWPOLYLINE
  5
6BB
330
1F
100
AcDbEntity
  8
INDUSA
  6
Continuous
100
AcDbPolyline
 90
        3
 70
   128
 43
0.0
 10
318.9108512892468
 20
500.574423242688
 10
318.9077128358759
 20
500.5754329040193
 10
318.8950505132102
 20
500.579493725
  0
LWPOLYLINE
  5
6BD
330
1F
100
AcDbEntity
  8
INDUSA
  6
Continuous
100
AcDbPolyline
 90
        8
 70
   128
 43
0.0
 10
318.7536783639671
 20
500.5353615339407
 10
318.7848906305234
 20
500.5354044565063
 10
318.8081680647596
 20
500.5353855031834
 10
318.8313940482046
 20
500.5353225758538
 10
318.8544085159626
 20
500.5352160973141
 10
318.8773307203948
 20
500.5350630536674
 10
318.8937044051665
 20
500.5349213195232
 10
318.9100115389609
 20
500.5347476916793
  0
LWPOLYLINE
  5
6C3
330
1F
100
AcDbEntity
  8
INDUSA
  6
Continuous
100
AcDbPolyline
 90
        9
 70
   128
 43
0.0
 10
318.8520616220867
 20
500.3700437483392
 10
318.8593698141884
 20
500.3850835753903
 10
318.8665333141372
 20
500.400523002584
 10
318.8735578938615
 20
500.4163821250943
 10
318.8804234424982
 20
500.4326202576108
 10
318.8901883886467
 20
500.4570946542744
 10
318.8995891451666
 20
500.4823708672329
 10
318.9086304922827
 20
500.5084905024338
 10
318.9172725955073
 20
500.5353666423092
  0
LWPOLYLINE
  5
6C4
330
1F
100
AcDbEntity
  8
INDUSA
  6
Continuous
100
AcDbPolyline
 90
        9
 70
   128
 43
0.0
 10
318.6552951058475
 20
500.3700437483392
 10
318.6479869137458
 20
500.3850835753903
 10
318.640823413797
 20
500.400523002584
 10
318.6337988340727
 20
500.4163821250943
 10
318.6269332854359
 20
500.4326202576108
 10
318.6171683392875
 20
500.4570946542744
 10
318.6077675827677
 20
500.4823708672329
 10
318.5987262356515
 20
500.5084905024338
 10
318.5900841324269
 20
500.5353666423092
  0
LWPOLYLINE
  5
6C5
330
1F
100
AcDbEntity
  8
INDUSA
  6
Continuous
100
AcDbPolyline
 90
        9
 70
   128
 43
0.0
 10
318.9855104156306
 20
500.5512936372016
 10
318.9794618020191
 20
500.5343134408113
 10
318.9725718108087
 20
500.5176730323542
 10
318.964773724049
 20
500.5012445697602
 10
318.9561573647756
 20
500.4852415606674
 10
318.9472142446238
 20
500.470435839045
 10
318.9375700298779
 20
500.4560793117902
 10
318.9271461686571
 20
500.4420750331373
 10
318.9160516843585
 20
500.4285883283506
  0
LWPOLYLINE
  5
6C6
330
1F
100
AcDbEntity
  8
INDUSA
  6
Continuous
100
AcDbPolyline
 90
        9
 70
   128
 43
0.0
 10
318.5218463123036
 20
500.5512936372016
 10
318.5278866577777
 20
500.5343353110212
 10
318.5347849171255
 20
500.5176730323542
 10
318.5425723378231
 20
500.5012653973976
 10
318.5511993631586
 20
500.4852415606674
 10
318.5601424833104
 20
500.470435839045
 10
318.5697866980563
 20
500.4560793117902
 10
318.5801975908604
 20
500.4420908089858
 10
318.5913050435757
 20
500.4285883283506
  0
LINE
  5
6C7
330
1F
100
AcDbEntity
  8
INDUSA
100
AcDbLine
 10
319.7986163544721
 20
500.5733411834171
 30
0.0
 11
319.7988161927447
 21
500.5733183809874
 31
0.0
  0
LINE
  5
6D9
330
1F
100
AcDbEntity
  8
INDUSA
100
AcDbLine
 10
319.2244683389418
 20
500.5778209114971
 30
0.0
 11
319.2244683389418
 21
500.5796466157828
 31
0.0
  0
LINE
  5
6DB
330
1F
100
AcDbEntity
  8
INDUSA
100
AcDbLine
 10
319.3274507616274
 20
500.5816462914611
 30
0.0
 11
319.2264322660765
 21
500.5816462914611
 31
0.0
  0
LINE
  5
6EB
330
1F
100
AcDbEntity
  8
INDUSA
  6
Continuous
100
AcDbLine
 10
319.3471429116229
 20
500.573785160593
 30
0.0
 11
319.3535071930217
 21
500.573785160593
 31
0.0
  0
LINE
  5
6EC
330
1F
100
AcDbEntity
  8
INDUSA
100
AcDbLine
 10
319.343968863024
 20
500.5746195398154
 30
0.0
 11
319.3471429116229
 21
500.573785160593
 31
0.0
  0
ARC
  5
6ED
330
1F
100
AcDbEntity
  8
INDUSA
100
AcDbCircle
 10
319.7841016873779
 20
500.4831326469956
 30
0.0
 40
0.05223580232374
100
AcDbArc
 50
81.15810079582564
 51
89.52342084816669
  0
LINE
  5
6EF
330
1F
100
AcDbEntity
  8
INDUSA
100
AcDbLine
 10
319.7526770383968
 20
500.5734911286464
 30
0.0
 11
319.7683890455173
 21
500.5737012189596
 31
0.0
  0
LINE
  5
6F0
330
1F
100
AcDbEntity
  8
INDUSA
100
AcDbLine
 10
319.771613620572
 20
500.5737443357923
 30
0.0
 11
319.778012912607
 21
500.573785160593
 31
0.0
  0
LWPOLYLINE
  5
6F1
330
1F
100
AcDbEntity
  8
INDUSA
  6
Continuous
100
AcDbPolyline
 90
       12
 70
   128
 43
0.0
 10
319.3369255086456
 20
500.5769534666489
 10
319.3372184841294
 20
500.5768309309393
 10
319.3375590401213
 20
500.5766934188862
 10
319.3378538670355
 20
500.5765780402327
 10
319.3381717232698
 20
500.5764570510763
 10
319.3386144782558
 20
500.5762935863367
 10
319.3392032368523
 20
500.5760842684799
 10
319.3399579080613
 20
500.5758274917156
 10
319.340901980603
 20
500.575521576899
 10
319.342061935647
 20
500.5751649450385
 10
319.3434651379189
 20
500.57475729658
 10
319.343968863024
 20
500.5746195398154
  0
ARC
  5
6F2
330
1F
100
AcDbEntity
  8
INDUSA
  6
Continuous
100
AcDbCircle
 10
319.4839534162078
 20
500.3046459728856
 30
0.0
 40
0.1008042220735108
100
AcDbArc
 50
269.9605224092794
 51
306.6115985221295
  0
LINE
  5
6F3
330
1F
100
AcDbEntity
  8
INDUSA
  6
Continuous
100
AcDbLine
 10
319.626568244513
 20
500.223785160593
 30
0.0
 11
319.3489787988784
 21
500.223785160593
 31
0.0
  0
LWPOLYLINE
  5
6F5
330
1F
100
AcDbEntity
  8
INDUSA
  6
Continuous
100
AcDbPolyline
 90
        5
 70
   128
 43
0.0
 10
319.6425019965046
 20
500.3591018047734
 10
319.5971515381983
 20
500.3679145505306
 10
319.4973059055467
 20
500.3872468427283
 10
319.3974292690331
 20
500.4064342727231
 10
319.3506406524733
 20
500.415348114767
  0
LINE
  5
6F6
330
1F
100
AcDbEntity
  8
INDUSA
  6
Continuous
100
AcDbLine
 10
319.3637178776989
 20
500.573785160593
 30
0.0
 11
319.5707852365924
 21
500.573785160593
 31
0.0
  0
LWPOLYLINE
  5
6FA
330
1F
100
AcDbEntity
  8
INDUSA
  6
Continuous
100
AcDbPolyline
 90
        5
 70
   128
 43
0.0
 10
319.78453617326
 20
500.5353666423092
 10
319.6271553710957
 20
500.5414893508265
 10
319.5332819277081
 20
500.5451241022507
 10
319.4497161506543
 20
500.5482940313997
 10
319.3661282670836
 20
500.5512936372016
  0
LINE
  5
6FB
330
1F
100
AcDbEntity
  8
INDUSA
  6
Continuous
100
AcDbLine
 10
319.2244683389418
 20
500.225785160593
 30
0.0
 11
319.2244683389418
 21
500.561785160593
 31
0.0
  0
LWPOLYLINE
  5
6FD
330
1F
100
AcDbEntity
  8
INDUSA
  6
Continuous
100
AcDbPolyline
 90
        5
 70
   128
 43
0.0
 10
319.3608884625988
 20
500.5566047199829
 10
319.3594419083569
 20
500.5407949880003
 10
319.357855246311
 20
500.5252431750717
 10
319.3561735268217
 20
500.5101446986417
 10
319.3544090387074
 20
500.495369296181
  0
LWPOLYLINE
  5
6FE
330
1F
100
AcDbEntity
  8
INDUSA
  6
Continuous
100
AcDbPolyline
 90
        6
 70
   128
 43
0.0
 10
319.3617117242697
 20
500.5525728770712
 10
319.3618897901647
 20
500.5553204556379
 10
319.3619365822915
 20
500.5579707669873
 10
319.3618611763727
 20
500.5606909487197
 10
319.3616707594975
 20
500.5632497437193
 10
319.3613618267937
 20
500.565720914023
  0
LWPOLYLINE
  5
702
330
1F
100
AcDbEntity
  8
INDUSA
  6
Continuous
100
AcDbPolyline
 90
        5
 70
   128
 43
0.0
 10
319.3448175851922
 20
500.2515143626561
 10
319.3449024269979
 20
500.2610492755501
 10
319.3453130833654
 20
500.3124832456928
 10
319.345638434275
 20
500.3639514705194
 10
319.3458713740832
 20
500.4154450114498
  0
LINE
  5
703
330
1F
100
AcDbEntity
  8
INDUSA
  6
Continuous
100
AcDbLine
 10
319.3448175851922
 20
500.491785160593
 30
0.0
 11
319.3448175851922
 21
500.2515143626561
 31
0.0
  0
LINE
  5
704
330
1F
100
AcDbEntity
  8
INDUSA
  6
Continuous
100
AcDbLine
 10
319.3420904457241
 20
500.223785160593
 30
0.0
 11
319.2264683389418
 21
500.223785160593
 31
0.0
  0
ARC
  5
706
330
1F
100
AcDbEntity
  8
INDUSA
  6
Continuous
100
AcDbCircle
 10
319.2264683389418
 20
500.225785160593
 30
0.0
 40
0.002
100
AcDbArc
 50
180.0
 51
270.0
  0
ARC
  5
709
330
1F
100
AcDbEntity
  8
INDUSA
  6
Continuous
100
AcDbCircle
 10
319.4846656232795
 20
500.3035951725173
 30
0.0
 40
0.0997564943275641
100
AcDbArc
 50
233.2553811592271
 51
269.5510424281585
  0
LWPOLYLINE
  5
70C
330
1F
100
AcDbEntity
  8
INDUSA
  6
Continuous
100
AcDbPolyline
 90
        3
 70
   128
 43
0.0
 10
319.3448175851922
 20
500.2515143626561
 10
319.3448011432596
 20
500.245516798399
 10
319.3448561042959
 20
500.2257468273509
  0
LINE
  5
70D
330
1F
100
AcDbEntity
  8
INDUSA
  6
Continuous
100
AcDbLine
 10
319.3466985505856
 20
500.223785160593
 30
0.0
 11
319.3420904457241
 21
500.223785160593
 31
0.0
  0
LINE
  5
711
330
1F
100
AcDbEntity
  8
INDUSA
  6
Continuous
100
AcDbLine
 10
319.3489787988784
 20
500.223785160593
 30
0.0
 11
319.3466985505856
 21
500.223785160593
 31
0.0
  0
LWPOLYLINE
  5
712
330
1F
100
AcDbEntity
  8
INDUSA
  6
Continuous
100
AcDbPolyline
 90
        9
 70
   128
 43
0.0
 10
319.3466985505856
 20
500.223785160593
 10
319.3463433725598
 20
500.2238226608007
 10
319.3460015137838
 20
500.223933755158
 10
319.3456857940325
 20
500.2241142776037
 10
319.3454080528622
 20
500.2243574585085
 10
319.3451787056246
 20
500.2246541785378
 10
319.3450063528887
 20
500.2249933106291
 10
319.3448974579177
 20
500.2253621372585
 10
319.3448561042959
 20
500.2257468273509
  0
LINE
  5
715
330
1F
100
AcDbEntity
  8
INDUSA
  6
Continuous
100
AcDbLine
 10
319.3094683389418
 20
500.456785160593
 30
0.0
 11
319.3094683389418
 21
500.515785160593
 31
0.0
  0
LINE
  5
716
330
1F
100
AcDbEntity
  8
INDUSA
  6
Continuous
100
AcDbLine
 10
319.2594683389418
 20
500.515785160593
 30
0.0
 11
319.2594683389418
 21
500.456785160593
 31
0.0
  0
LINE
  5
719
330
1F
100
AcDbEntity
  8
INDUSA
  6
Continuous
100
AcDbLine
 10
319.2614683389418
 20
500.458785160593
 30
0.0
 11
319.3074683389418
 21
500.458785160593
 31
0.0
  0
LINE
  5
71B
330
1F
100
AcDbEntity
  8
INDUSA
  6
Continuous
100
AcDbLine
 10
319.2614683389418
 20
500.448785160593
 30
0.0
 11
319.3074683389418
 21
500.448785160593
 31
0.0
  0
ARC
  5
71E
330
1F
100
AcDbEntity
  8
INDUSA
  6
Continuous
100
AcDbCircle
 10
319.2614683389418
 20
500.460785160593
 30
0.0
 40
0.002
100
AcDbArc
 50
180.0
 51
270.0
  0
LINE
  5
71F
330
1F
100
AcDbEntity
  8
INDUSA
  6
Continuous
100
AcDbLine
 10
319.2594683389418
 20
500.456785160593
 30
0.0
 11
319.2594683389418
 21
500.450785160593
 31
0.0
  0
ARC
  5
720
330
1F
100
AcDbEntity
  8
INDUSA
  6
Continuous
100
AcDbCircle
 10
319.2614683389418
 20
500.450785160593
 30
0.0
 40
0.002
100
AcDbArc
 50
180.0
 51
270.0
  0
ARC
  5
722
330
1F
100
AcDbEntity
  8
INDUSA
  6
Continuous
100
AcDbCircle
 10
319.3074683389418
 20
500.460785160593
 30
0.0
 40
0.002
100
AcDbArc
 50
270.0
 51
0.0
  0
LINE
  5
724
330
1F
100
AcDbEntity
  8
INDUSA
  6
Continuous
100
AcDbLine
 10
319.3094683389418
 20
500.450785160593
 30
0.0
 11
319.3094683389418
 21
500.456785160593
 31
0.0
  0
ARC
  5
725
330
1F
100
AcDbEntity
  8
INDUSA
  6
Continuous
100
AcDbCircle
 10
319.3074683389418
 20
500.450785160593
 30
0.0
 40
0.002
100
AcDbArc
 50
270.0
 51
0.0
  0
LINE
  5
727
330
1F
100
AcDbEntity
  8
INDUSA
  6
Continuous
100
AcDbLine
 10
319.3074683389418
 20
500.513785160593
 30
0.0
 11
319.2614683389418
 21
500.513785160593
 31
0.0
  0
LINE
  5
729
330
1F
100
AcDbEntity
  8
INDUSA
  6
Continuous
100
AcDbLine
 10
319.3074683389418
 20
500.523785160593
 30
0.0
 11
319.2614683389418
 21
500.523785160593
 31
0.0
  0
ARC
  5
72B
330
1F
100
AcDbEntity
  8
INDUSA
  6
Continuous
100
AcDbCircle
 10
319.2614683389418
 20
500.521785160593
 30
0.0
 40
0.002
100
AcDbArc
 50
90.0
 51
180.0
  0
ARC
  5
72D
330
1F
100
AcDbEntity
  8
INDUSA
  6
Continuous
100
AcDbCircle
 10
319.2614683389418
 20
500.511785160593
 30
0.0
 40
0.002
100
AcDbArc
 50
90.0
 51
180.0
  0
LINE
  5
72F
330
1F
100
AcDbEntity
  8
INDUSA
  6
Continuous
100
AcDbLine
 10
319.2594683389418
 20
500.521785160593
 30
0.0
 11
319.2594683389418
 21
500.515785160593
 31
0.0
  0
ARC
  5
730
330
1F
100
AcDbEntity
  8
INDUSA
  6
Continuous
100
AcDbCircle
 10
319.3074683389418
 20
500.521785160593
 30
0.0
 40
0.002
100
AcDbArc
 50
0.0
 51
90.0
  0
ARC
  5
732
330
1F
100
AcDbEntity
  8
INDUSA
  6
Continuous
100
AcDbCircle
 10
319.3074683389418
 20
500.511785160593
 30
0.0
 40
0.002
100
AcDbArc
 50
0.0
 51
90.0
  0
LINE
  5
734
330
1F
100
AcDbEntity
  8
INDUSA
  6
Continuous
100
AcDbLine
 10
319.3094683389418
 20
500.515785160593
 30
0.0
 11
319.3094683389418
 21
500.521785160593
 31
0.0
  0
LWPOLYLINE
  5
736
330
1F
100
AcDbEntity
  8
INDUSA
  6
Continuous
100
AcDbPolyline
 90
        9
 70
   128
 43
0.0
 10
319.3468084112932
 20
500.4312135295365
 10
319.3486400231602
 20
500.44442570374
 10
319.3505407342767
 20
500.458142829987
 10
319.352492535763
 20
500.4724721692536
 10
319.3544412705065
 20
500.4872579329631
 10
319.3564046586231
 20
500.502911291822
 10
319.3582892222673
 20
500.5189804174956
 10
319.3600763492383
 20
500.5356031455304
 10
319.3617117242697
 20
500.5525728770712
  0
LWPOLYLINE
  5
737
330
1F
100
AcDbEntity
  8
INDUSA
  6
Continuous
100
AcDbPolyline
 90
        9
 70
   128
 43
0.0
 10
319.3506406524733
 20
500.415348114767
 10
319.3498323902288
 20
500.4153489940068
 10
319.3490239440326
 20
500.4153538355098
 10
319.348248675287
 20
500.4153624394862
 10
319.3475385762917
 20
500.4153744508834
 10
319.3469229500458
 20
500.4153893740385
 10
319.3464272010293
 20
500.4154065931311
 10
319.346071786859
 20
500.4154253975971
 10
319.3458713740832
 20
500.4154450114498
  0
LWPOLYLINE
  5
739
330
1F
100
AcDbEntity
  8
INDUSA
  6
Continuous
100
AcDbPolyline
 90
        5
 70
   128
 43
0.0
 10
319.3458713740832
 20
500.4154450114498
 10
319.3459376367629
 20
500.4195723884846
 10
319.3461124432072
 20
500.4236820158871
 10
319.3463994118275
 20
500.427590514134
 10
319.3468084112932
 20
500.4312135295365
  0
LWPOLYLINE
  5
73D
330
1F
100
AcDbEntity
  8
INDUSA
  6
Continuous
100
AcDbPolyline
 90
        3
 70
   128
 43
0.0
 10
319.3544090387074
 20
500.495369296181
 10
319.354287630009
 20
500.4945283381282
 10
319.3541135522858
 20
500.493785160593
  0
LINE
  5
73F
330
1F
100
AcDbEntity
  8
INDUSA
  6
Continuous
100
AcDbLine
 10
319.3468921344885
 20
500.493785160593
 30
0.0
 11
319.3541135522858
 21
500.493785160593
 31
0.0
  0
LWPOLYLINE
  5
740
330
1F
100
AcDbEntity
  8
INDUSA
  6
Continuous
100
AcDbPolyline
 90
        7
 70
   128
 43
0.0
 10
319.3468921344885
 20
500.493785160593
 10
319.346743942538
 20
500.4937800550404
 10
319.3460615740533
 20
500.4936179603475
 10
319.3456891465701
 20
500.4934146997649
 10
319.3452010820972
 20
500.4929438465278
 10
319.3449007257827
 20
500.4923457862328
 10
319.3448175851922
 20
500.491785160593
  0
LWPOLYLINE
  5
744
330
1F
100
AcDbEntity
  8
INDUSA
  6
Continuous
100
AcDbPolyline
 90
        9
 70
   128
 43
0.0
 10
319.3661282670836
 20
500.5512936372016
 10
319.3654039680396
 20
500.5513411499495
 10
319.3646851523868
 20
500.5514294428249
 10
319.3639956187356
 20
500.5515555926195
 10
319.3633581962252
 20
500.5517154227553
 10
319.3627939886951
 20
500.5519036415622
 10
319.3623216759765
 20
500.5521140174758
 10
319.3619568954396
 20
500.5523395853524
 10
319.3617117242697
 20
500.5525728770712
  0
LWPOLYLINE
  5
74B
330
1F
100
AcDbEntity
  8
INDUSA
  6
Continuous
100
AcDbPolyline
 90
       11
 70
   128
 43
0.0
 10
319.2261752523153
 20
500.563241298522
 10
319.2275304925555
 20
500.5636761854519
 10
319.2292269181497
 20
500.5640839557034
 10
319.2312402029094
 20
500.5644587619843
 10
319.2335414769892
 20
500.5647952296952
 10
319.2360977408709
 20
500.5650885339988
 10
319.2388723385658
 20
500.5653344690075
 10
319.2418254832499
 20
500.5655295080934
 10
319.2449148277936
 20
500.5656708544601
 10
319.2480960720057
 20
500.5657564812467
 10
319.2513235978842
 20
500.565785160593
  0
LINE
  5
74C
330
1F
100
AcDbEntity
  8
INDUSA
  6
Continuous
100
AcDbLine
 10
319.2244683389418
 20
500.5776880647975
 30
0.0
 11
319.2244683389418
 21
500.5778209114971
 31
0.0
  0
LWPOLYLINE
  5
74D
330
1F
100
AcDbEntity
  8
INDUSA
  6
Continuous
100
AcDbPolyline
 90
        6
 70
   128
 43
0.0
 10
319.2264322660765
 20
500.5816462914611
 10
319.2257723962992
 20
500.5815216270939
 10
319.2251909887775
 20
500.5811855696379
 10
319.2247535926268
 20
500.5806760069395
 10
319.2245095209037
 20
500.5800503880696
 10
319.2244683389418
 20
500.5796466157828
  0
LINE
  5
74F
330
1F
100
AcDbEntity
  8
INDUSA
  6
Continuous
100
AcDbLine
 10
319.2244683389418
 20
500.561785160593
 30
0.0
 11
319.2244683389418
 21
500.563241298522
 31
0.0
  0
LINE
  5
750
330
1F
100
AcDbEntity
  8
INDUSA
  6
Continuous
100
AcDbLine
 10
319.2244683389418
 20
500.563241298522
 30
0.0
 11
319.2244683389418
 21
500.5756719171658
 31
0.0
  0
LINE
  5
751
330
1F
100
AcDbEntity
  8
INDUSA
  6
Continuous
100
AcDbLine
 10
319.2244683389418
 20
500.563241298522
 30
0.0
 11
319.2261752523153
 21
500.563241298522
 31
0.0
  0
LINE
  5
754
330
1F
100
AcDbEntity
  8
INDUSA
  6
Continuous
100
AcDbLine
 10
319.2244683389418
 20
500.5756719171658
 30
0.0
 11
319.2244683389418
 21
500.5776880647975
 31
0.0
  0
LWPOLYLINE
  5
755
330
1F
100
AcDbEntity
  8
INDUSA
  6
Continuous
100
AcDbPolyline
 90
        9
 70
   128
 43
0.0
 10
319.2244683389418
 20
500.5776880647975
 10
319.2245091084241
 20
500.578089830503
 10
319.2246297547202
 20
500.5784752164285
 10
319.2248253591433
 20
500.5788285105897
 10
319.225087947002
 20
500.5791353093663
 10
319.2254068127255
 20
500.579383104731
 10
319.2257689563233
 20
500.5795617941953
 10
319.2261596133883
 20
500.5796640926821
 10
319.2265628570344
 20
500.5796858295351
  0
LWPOLYLINE
  5
75B
330
1F
100
AcDbEntity
  8
INDUSA
  6
Continuous
100
AcDbPolyline
 90
       12
 70
   128
 43
0.0
 10
319.3345704929359
 20
500.5788501542104
 10
319.3341603206442
 20
500.5792235306524
 10
319.333276949666
 20
500.5799023068576
 10
319.3327995820652
 20
500.5802090988393
 10
319.3323039840791
 20
500.5804892171531
 10
319.331789461297
 20
500.5807424567169
 10
319.3312786098058
 20
500.5809590492909
 10
319.3302195338875
 20
500.5813071438261
 10
319.329668108666
 20
500.5814382809107
 10
319.3285389912921
 20
500.5816066530676
 10
319.3279962257717
 20
500.5816412741108
 10
319.327450761628
 20
500.5816462914599
  0
LWPOLYLINE
  5
75C
330
1F
100
AcDbEntity
  8
INDUSA
  6
Continuous
100
AcDbPolyline
 90
        4
 70
   128
 43
0.0
 10
319.334570713443
 20
500.5788503451507
 10
319.3361450409921
 20
500.5775002426873
 10
319.3365586919147
 20
500.5771939574082
 10
319.3369255086456
 20
500.5769534666489
  0
LINE
  5
764
330
1F
100
AcDbEntity
  8
INDUSA
  6
Continuous
100
AcDbLine
 10
319.3535071930217
 20
500.573785160593
 30
0.0
 11
319.3637178776989
 21
500.573785160593
 31
0.0
  0
LWPOLYLINE
  5
769
330
1F
100
AcDbEntity
  8
INDUSA
  6
Continuous
100
AcDbPolyline
 90
        8
 70
   128
 43
0.0
 10
319.3591805349678
 20
500.565785160593
 10
319.3593801134155
 20
500.5657402644275
 10
319.3599575902362
 20
500.5650808439031
 10
319.3604532203352
 20
500.5637022278954
 10
319.3606957919625
 20
500.5625288910199
 10
319.3609319631426
 20
500.5603723671548
 10
319.3609692604765
 20
500.5580362667762
 10
319.3608884625988
 20
500.5566047199829
  0
LWPOLYLINE
  5
76C
330
1F
100
AcDbEntity
  8
INDUSA
  6
Continuous
100
AcDbPolyline
 90
        4
 70
   128
 43
0.0
 10
319.3611981913569
 20
500.5667901083192
 10
319.3608210654785
 20
500.5684620054276
 10
319.3603610813788
 20
500.5694449094595
 10
319.3538213514338
 20
500.573785160593
  0
LINE
  5
76D
330
1F
100
AcDbEntity
  8
INDUSA
  6
Continuous
100
AcDbLine
 10
319.3613618267937
 20
500.565720914023
 30
0.0
 11
319.3611981913569
 21
500.5667901083192
 31
0.0
  0
LINE
  5
770
330
1F
100
AcDbEntity
  8
INDUSA
  6
Continuous
100
AcDbLine
 10
319.8091887698782
 20
500.5651596316956
 30
0.0
 11
319.8119121029644
 21
500.5506277679108
 31
0.0
  0
LWPOLYLINE
  5
773
330
1F
100
AcDbEntity
  8
INDUSA
  6
Continuous
100
AcDbPolyline
 90
        7
 70
   128
 43
0.0
 10
319.6499343911847
 20
500.3548452853002
 10
319.6480723280112
 20
500.3308532047608
 10
319.6457830333131
 20
500.3068995800482
 10
319.6430692273406
 20
500.2830113269292
 10
319.6399304948006
 20
500.259179205781
 10
319.637445312756
 20
500.2422993324795
 10
319.6347478926059
 20
500.2254564412139
  0
LWPOLYLINE
  5
774
330
1F
100
AcDbEntity
  8
INDUSA
  6
Continuous
100
AcDbPolyline
 90
        6
 70
   128
 43
0.0
 10
319.6270022588723
 20
500.2255339555396
 10
319.6321228182502
 20
500.2594878236352
 10
319.6351939949774
 20
500.2832509431285
 10
319.6378526957771
 20
500.3070858272199
 10
319.6400949713237
 20
500.330966609025
 10
319.6419211758235
 20
500.354902333151
  0
LINE
  5
775
330
1F
100
AcDbEntity
  8
INDUSA
  6
Continuous
100
AcDbLine
 10
319.6327750916605
 20
500.223785160593
 30
0.0
 11
319.626568244513
 21
500.223785160593
 31
0.0
  0
ARC
  5
776
330
1F
100
AcDbEntity
  8
INDUSA
  6
Continuous
100
AcDbCircle
 10
319.6327750916605
 20
500.225785160593
 30
0.0
 40
0.002
100
AcDbArc
 50
270.0
 51
350.5399604357605
  0
LWPOLYLINE
  5
778
330
1F
100
AcDbEntity
  8
INDUSA
  6
Continuous
100
AcDbPolyline
 90
        9
 70
   128
 43
0.0
 10
319.626568244513
 20
500.223785160593
 10
319.6266468276995
 20
500.2238176911445
 10
319.6267228545315
 20
500.2239142245624
 10
319.6267938518144
 20
500.2240716205612
 10
319.6268575099673
 20
500.2242847589623
 10
319.6269117581555
 20
500.224546706256
 10
319.6269548316553
 20
500.2248489411523
 10
319.6269853292623
 20
500.2251816317833
 10
319.6270022588723
 20
500.2255339555396
  0
LWPOLYLINE
  5
779
330
1F
100
AcDbEntity
  8
INDUSA
  6
Continuous
100
AcDbPolyline
 90
        5
 70
   128
 43
0.0
 10
319.6567365034338
 20
500.3680052352051
 10
319.6541524843163
 20
500.3652982340061
 10
319.652053483083
 20
500.3620325589127
 10
319.6507878468576
 20
500.3589616084378
 10
319.6500587594448
 20
500.3557351144491
  0
LWPOLYLINE
  5
77C
330
1F
100
AcDbEntity
  8
INDUSA
  6
Continuous
100
AcDbPolyline
 90
        9
 70
   128
 43
0.0
 10
319.6499106554601
 20
500.3700437483392
 10
319.6650703642996
 20
500.3850835753903
 10
319.6798939757314
 20
500.400523002584
 10
319.6944163978806
 20
500.4163821250943
 10
319.7085918884557
 20
500.4326202576108
 10
319.7287323280672
 20
500.4570946542744
 10
319.7481085406645
 20
500.4823708672329
 10
319.7667369231589
 20
500.5084905024338
 10
319.78453617326
 20
500.5353666423092
  0
LINE
  5
77D
330
1F
100
AcDbEntity
  8
INDUSA
  6
Continuous
100
AcDbLine
 10
319.6500587594448
 20
500.3557351144491
 30
0.0
 11
319.6499343911847
 21
500.3548452853001
 31
0.0
  0
LWPOLYLINE
  5
77E
330
1F
100
AcDbEntity
  8
INDUSA
  6
Continuous
100
AcDbPolyline
 90
        9
 70
   128
 43
0.0
 10
319.6425019965046
 20
500.3591018047734
 10
319.6440988618267
 20
500.3587722999181
 10
319.645592693209
 20
500.3584699713265
 10
319.6469402153452
 20
500.3582035772579
 10
319.6481023914107
 20
500.3579808349719
 10
319.6490455539341
 20
500.3578081971655
 10
319.649742380121
 20
500.3576906650414
 10
319.6501726833781
 20
500.3576316434277
 10
319.6503239981049
 20
500.3576328421413
  0
LINE
  5
77F
330
1F
100
AcDbEntity
  8
INDUSA
  6
Continuous
100
AcDbLine
 10
319.6419211758235
 20
500.354902333151
 30
0.0
 11
319.6425019965046
 21
500.3591018047734
 31
0.0
  0
LWPOLYLINE
  5
780
330
1F
100
AcDbEntity
  8
INDUSA
  6
Continuous
100
AcDbPolyline
 90
        4
 70
   128
 43
0.0
 10
319.6425019965046
 20
500.3591018047734
 10
319.6438506470014
 20
500.3628000262328
 10
319.6455030175619
 20
500.3653315557626
 10
319.6476202202116
 20
500.3675702514772
  0
LINE
  5
781
330
1F
100
AcDbEntity
  8
INDUSA
  6
Continuous
100
AcDbLine
 10
319.6476202202116
 20
500.3675702514772
 30
0.0
 11
319.6499106554601
 21
500.3700437483392
 31
0.0
  0
LWPOLYLINE
  5
782
330
1F
100
AcDbEntity
  8
INDUSA
  6
Continuous
100
AcDbPolyline
 90
        9
 70
   128
 43
0.0
 10
319.6567365034338
 20
500.3680052352051
 10
319.6783157786577
 20
500.3873234559239
 10
319.688888484916
 20
500.3972324413664
 10
319.6992970295165
 20
500.4072895728861
 10
319.7197352149033
 20
500.4279631177283
 10
319.7435503415284
 20
500.4537362777194
 10
319.7664286151683
 20
500.4804077271568
 10
319.787980593613
 20
500.5074825723065
 10
319.8085592948899
 20
500.5353615339407
  0
LWPOLYLINE
  5
786
330
1F
100
AcDbEntity
  8
INDUSA
  6
Continuous
100
AcDbPolyline
 90
        9
 70
   128
 43
0.0
 10
319.8085592948899
 20
500.5353615339407
 10
319.8099087817364
 20
500.5375458785462
 10
319.8104811661431
 20
500.5387107616032
 10
319.8109673007737
 20
500.5398851120538
 10
319.8117584616867
 20
500.5425178637895
 10
319.8122219833792
 20
500.5458068798705
 10
319.8121239914849
 20
500.549223314799
 10
319.8120305854128
 20
500.5499269797791
 10
319.8119121029644
 20
500.5506277679107
  0
LWPOLYLINE
  5
787
330
1F
100
AcDbEntity
  8
INDUSA
  6
Continuous
100
AcDbPolyline
 90
        8
 70
   128
 43
0.0
 10
319.8085592948899
 20
500.5353615339407
 10
319.807828414293
 20
500.5354044565063
 10
319.806464869814
 20
500.5353855031834
 10
319.8044037489651
 20
500.5353225758538
 10
319.801665550332
 20
500.5352160973141
 10
319.7982416902332
 20
500.5350630536674
 10
319.7953632963534
 20
500.5349213195232
 10
319.7921307724255
 20
500.5347476916793
  0
LWPOLYLINE
  5
78F
330
1F
100
AcDbEntity
  8
INDUSA
  6
Continuous
100
AcDbPolyline
 90
        3
 70
   128
 43
0.0
 10
319.636043982372
 20
500.5736694154746
 10
319.6674459549279
 20
500.573565163101
 10
319.7233173228342
 20
500.5733805389858
  0
LINE
  5
790
330
1F
100
AcDbEntity
  8
INDUSA
  6
Continuous
100
AcDbLine
 10
319.5707852365924
 20
500.573785160593
 30
0.0
 11
319.5773725783076
 21
500.5737817851289
 31
0.0
  0
LINE
  5
791
330
1F
100
AcDbEntity
  8
INDUSA
  6
Continuous
100
AcDbLine
 10
319.5813977337814
 20
500.573779722572
 30
0.0
 11
319.6171500335341
 21
500.5737034874171
 31
0.0
  0
LWPOLYLINE
  5
794
330
1F
100
AcDbEntity
  8
INDUSA
  6
Continuous
100
AcDbPolyline
 90
        3
 70
   128
 43
0.0
 10
319.5773806944554
 20
500.5737823401897
 10
319.5782243779664
 20
500.5737822188508
 10
319.5814101995797
 20
500.5737822242351
  0
LINE
  5
795
330
1F
100
AcDbEntity
  8
INDUSA
  6
Continuous
100
AcDbLine
 10
319.6171950356125
 20
500.5736929744282
 30
0.0
 11
319.6360439106633
 21
500.5736566980009
 31
0.0
  0
LWPOLYLINE
  5
797
330
1F
100
AcDbEntity
  8
INDUSA
  6
Continuous
100
AcDbPolyline
 90
        4
 70
   128
 43
0.0
 10
319.7233155857712
 20
500.5733825412554
 10
319.7240951935571
 20
500.573377758254
 10
319.7499082070335
 20
500.5734541057095
 10
319.7526770383968
 20
500.5734911286464
  0
LINE
  5
799
330
1F
100
AcDbEntity
  8
INDUSA
  6
Continuous
100
AcDbLine
 10
319.7683890455173
 20
500.5737012189596
 30
0.0
 11
319.771613620572
 21
500.5737443357923
 31
0.0
  0
LWPOLYLINE
  5
79A
330
1F
100
AcDbEntity
  8
INDUSA
  6
Continuous
100
AcDbPolyline
 90
        6
 70
   128
 43
0.0
 10
319.7935069818329
 20
500.5733407968692
 10
319.7949471865417
 20
500.5733408870638
 10
319.7961788539048
 20
500.5733409943649
 10
319.7972008787955
 20
500.57334108703
 10
319.7980135902601
 20
500.573341150493
 10
319.7986163544721
 20
500.5733411834172
  0
LWPOLYLINE
  5
79B
330
1F
100
AcDbEntity
  8
INDUSA
  6
Continuous
100
AcDbPolyline
 90
        8
 70
   128
 43
0.0
 10
319.8091887698782
 20
500.5651596316956
 10
319.8087483708339
 20
500.5667609373121
 10
319.8080249995662
 20
500.5683092127303
 10
319.8070793852084
 20
500.5696744762301
 10
319.8058843039133
 20
500.5708960337615
 10
319.8045400838727
 20
500.5718713340623
 10
319.8030080269323
 20
500.572628454302
 10
319.8025941033311
 20
500.5727521100812
  0
LINE
  5
79C
330
1F
100
AcDbEntity
  8
INDUSA
  6
Continuous
100
AcDbLine
 10
319.7839216977101
 20
500.573785160593
 30
0.0
 11
319.7851284060453
 21
500.573785160593
 31
0.0
  0
LWPOLYLINE
  5
7A2
330
1F
100
AcDbEntity
  8
INDUSA
  6
Continuous
100
AcDbPolyline
 90
        9
 70
   128
 43
0.0
 10
319.7855237301247
 20
500.5666790194517
 10
319.7854263609973
 20
500.5681639369711
 10
319.7852907215519
 20
500.5695374826198
 10
319.7851202617063
 20
500.5707647209878
 10
319.7849193170167
 20
500.5718144379137
 10
319.7846929984055
 20
500.5726599344005
 10
319.7844470621674
 20
500.5732797056903
 10
319.7841877635611
 20
500.5736579882268
 10
319.7839216977101
 20
500.573785160593
  0
LINE
  5
7A3
330
1F
100
AcDbEntity
  8
INDUSA
  6
Continuous
100
AcDbLine
 10
319.778012912607
 20
500.573785160593
 30
0.0
 11
319.7839216977101
 21
500.573785160593
 31
0.0
  0
LWPOLYLINE
  5
7A6
330
1F
100
AcDbEntity
  8
INDUSA
  6
Continuous
100
AcDbPolyline
 90
        9
 70
   128
 43
0.0
 10
319.7988161927447
 20
500.5733183809874
 10
319.7993427641216
 20
500.573314621068
 10
319.7996658494009
 20
500.5733051281779
 10
319.8000312637146
 20
500.573284078574
 10
319.8003741344834
 20
500.5732528326992
 10
319.8007393604346
 20
500.5732066966002
 10
319.8012226936534
 20
500.5731246650208
 10
319.8018598699551
 20
500.572978806954
 10
319.8025941033311
 20
500.5727521100812
  0
LWPOLYLINE
  5
7A7
330
1F
100
AcDbEntity
  8
INDUSA
  6
Continuous
100
AcDbPolyline
 90
        6
 70
   128
 43
0.0
 10
319.7871601770306
 20
500.5736958419334
 10
319.7888145716623
 20
500.5735579825262
 10
319.7904817550609
 20
500.5734392445986
 10
319.7918501644553
 20
500.5733695100939
 10
319.7933248298459
 20
500.5733376312516
 10
319.7935069818329
 20
500.5733407968692
  0
LWPOLYLINE
  5
7A8
330
1F
100
AcDbEntity
  8
INDUSA
  6
Continuous
100
AcDbPolyline
 90
        3
 70
   128
 43
0.0
 10
319.7852356141092
 20
500.5737869092953
 10
319.7859717995979
 20
500.5737878247077
 10
319.7871601770306
 20
500.5736958419334
  0
LWPOLYLINE
  5
7C9
330
1F
100
AcDbEntity
  8
INDUSA
  6
Continuous
100
AcDbPolyline
 90
        7
 70
   128
 43
0.0
 10
318.1447229878809
 20
500.1948339739822
 10
318.1262523099083
 20
500.1927873875437
 10
318.1138871120186
 20
500.1916894565275
 10
318.1015008591713
 20
500.1908072566862
 10
318.0891334971621
 20
500.1901428552957
 10
318.0767526879955
 20
500.1896937606267
 10
318.0587125956656
 20
500.1894256205538
  0
LWPOLYLINE
  5
7CA
330
1F
100
AcDbEntity
  8
INDUSA
  6
Continuous
100
AcDbPolyline
 90
        5
 70
   128
 43
0.0
 10
317.9727022034503
 20
500.1948339739822
 10
317.9911728814228
 20
500.1927873875437
 10
318.0159243321599
 20
500.1908072566862
 10
318.0406725033356
 20
500.1896937606267
 10
318.0587125956656
 20
500.1894256205538
  0
ARC
  5
7D8
330
1F
100
AcDbEntity
  8
INDUSA
100
AcDbCircle
 10
317.9052314288878
 20
500.1673040260103
 30
0.0
 40
0.0113881441427221
100
AcDbArc
 50
190.8664237556838
 51
256.4982319423729
  0
ARC
  5
7DA
330
1F
100
AcDbEntity
  8
INDUSA
100
AcDbCircle
 10
318.2122446561955
 20
500.1671934351842
 30
0.0
 40
0.0113142734098743
100
AcDbArc
 50
290.5247843465895
 51
349.6363730987278
  0
LINE
  5
806
330
1F
100
AcDbEntity
  8
INDUSA
  6
Continuous
100
AcDbLine
 10
317.9249164432021
 20
500.404338881087
 30
0.0
 11
317.9377357116339
 21
500.2315699429758
 31
0.0
  0
ARC
  5
80C
330
1F
100
AcDbEntity
  8
INDUSA
  6
Continuous
100
AcDbCircle
 10
318.1397991367099
 20
500.2345297633011
 30
0.0
 40
0.0400000000000001
100
AcDbArc
 50
277.0708315683823
 51
355.756491217874
  0
LINE
  5
812
330
1F
100
AcDbEntity
  8
INDUSA
  6
Continuous
100
AcDbLine
 10
318.0548153554726
 20
500.3716172410747
 30
0.0
 11
318.0611345795862
 21
500.3714837153235
 31
0.0
  0
LINE
  5
817
330
1F
100
AcDbEntity
  8
INDUSA
  6
Continuous
100
AcDbLine
 10
318.0205668966323
 20
500.4075316964496
 30
0.0
 11
318.0209534848629
 21
500.4221976250597
 31
0.0
  0
ARC
  5
818
330
1F
100
AcDbEntity
  8
INDUSA
  6
Continuous
100
AcDbCircle
 10
318.0576125956656
 20
500.3435294901369
 30
0.0
 40
0.1000000000000002
100
AcDbArc
 50
76.18199694057529
 51
89.36973371455207
  0
ARC
  5
819
330
1F
100
AcDbEntity
  8
INDUSA
  6
Continuous
100
AcDbCircle
 10
318.0598125956656
 20
500.3435294901369
 30
0.0
 40
0.1000000000000002
100
AcDbArc
 50
90.6302662854479
 51
103.8180030594247
  0
LWPOLYLINE
  5
81C
330
1F
100
AcDbEntity
  8
INDUSA
  6
Continuous
100
AcDbPolyline
 90
        9
 70
   128
 43
0.0
 10
318.0209534848629
 20
500.4221976250597
 10
318.0213140601778
 20
500.4254514374241
 10
318.0222098924939
 20
500.4285998809606
 10
318.0236284011339
 20
500.4315519102124
 10
318.0255221732185
 20
500.4342240635144
 10
318.0278242582795
 20
500.4365210822182
 10
318.030473433184
 20
500.4384078580867
 10
318.0331192418429
 20
500.4397216520025
 10
318.035928736817
 20
500.4406354183108
  0
LINE
  5
822
330
1F
100
AcDbEntity
  8
INDUSA
  6
Continuous
100
AcDbLine
 10
318.0968618143863
 20
500.4073981706984
 30
0.0
 11
318.0964717064683
 21
500.4221976250597
 31
0.0
  0
LWPOLYLINE
  5
828
330
1F
100
AcDbEntity
  8
INDUSA
  6
Continuous
100
AcDbPolyline
 90
        9
 70
   128
 43
0.0
 10
318.0964717064683
 20
500.4221976250597
 10
318.0961111311533
 20
500.4254514374241
 10
318.0952152988372
 20
500.4285998809606
 10
318.0937967901972
 20
500.4315519102124
 10
318.0919030181126
 20
500.4342240635144
 10
318.0896009330516
 20
500.4365210822182
 10
318.0869517581471
 20
500.4384078580867
 10
318.0843059494882
 20
500.4397216520025
 10
318.0814964545141
 20
500.4406354183108
  0
LINE
  5
82A
330
1F
100
AcDbEntity
  8
INDUSA
  6
Continuous
100
AcDbLine
 10
318.192508748129
 20
500.404338881087
 30
0.0
 11
318.1796894796972
 21
500.2315699429758
 31
0.0
  0
LWPOLYLINE
  5
82B
330
1F
100
AcDbEntity
  8
INDUSA
  6
Continuous
100
AcDbPolyline
 90
       12
 70
   128
 43
0.0
 10
317.9025725777255
 20
500.1562306192395
 10
317.9158910178161
 20
500.1535353399756
 10
317.9308784326034
 20
500.1508020754593
 10
317.9458783408295
 20
500.1483806055225
 10
317.9612184091312
 20
500.146218366172
 10
317.9766371963343
 20
500.1443619533914
 10
317.9921032811787
 20
500.1428163659432
 10
318.0076131219422
 20
500.1415839955093
 10
318.0230438426611
 20
500.1406744028112
 10
318.0385416953466
 20
500.1400724367544
 10
318.0541196618782
 20
500.1397758004896
 10
318.0587125759651
 20
500.1397721072534
  0
ARC
  5
82F
330
1F
100
AcDbEntity
  8
INDUSA
  6
Continuous
100
AcDbCircle
 10
317.9776260546212
 20
500.2345297633011
 30
0.0
 40
0.0400000000000001
100
AcDbArc
 50
184.2435087821259
 51
262.9291684316177
  0
LWPOLYLINE
  5
831
330
1F
100
AcDbEntity
  8
INDUSA
  6
Continuous
100
AcDbPolyline
 90
        2
 70
   128
 43
0.0
 10
318.2148808112176
 20
500.1562358476373
 10
318.2162115821453
 20
500.1565973849152
  0
LWPOLYLINE
  5
848
330
1F
100
AcDbEntity
  8
INDUSA
  6
Continuous
100
AcDbPolyline
 90
       13
 70
   128
 43
0.0
 10
318.0587125108453
 20
500.1397634276676
 10
318.0607027412059
 20
500.1397605509988
 10
318.0756469425174
 20
500.1399975845142
 10
318.0909935969402
 20
500.1405258199942
 10
318.1065535129587
 20
500.141368754723
 10
318.1220162851551
 20
500.1425269243411
 10
318.1372478318568
 20
500.1439802805347
 10
318.1527019577637
 20
500.145768588247
 10
318.1681079210221
 20
500.1478683714873
 10
318.1834563901099
 20
500.1502781725389
 10
318.198755235754
 20
500.1530046962457
 10
318.2137301690044
 20
500.1559885531033
 10
318.2149453640589
 20
500.1562533850345
  0
LWPOLYLINE
  5
85A
330
1F
100
AcDbEntity
  8
INDUSA
  6
Continuous
100
AcDbPolyline
 90
        5
 70
   128
 43
0.0
 10
317.8933534169796
 20
500.6081902849697
 10
317.8951465028554
 20
500.6103244434312
 10
317.8966518837234
 20
500.6127369436465
 10
317.8979630555285
 20
500.6158119442896
 10
317.8987585611326
 20
500.6191607156751
  0
ARC
  5
85C
330
1F
100
AcDbEntity
  8
INDUSA
  6
Continuous
100
AcDbCircle
 10
317.8789744760404
 20
500.6220915819403
 30
0.0
 40
0.02
100
AcDbArc
 50
280.4628864086372
 51
315.9676149753982
  0
LINE
  5
861
330
1F
100
AcDbEntity
  8
INDUSA
  6
Continuous
100
AcDbLine
 10
317.9165381375499
 20
500.7275294901369
 30
0.0
 11
317.9185724229002
 21
500.7275294901369
 31
0.0
  0
ARC
  5
862
330
1F
100
AcDbEntity
  8
INDUSA
  6
Continuous
100
AcDbCircle
 10
317.9165381375499
 20
500.7255294901369
 30
0.0
 40
0.0020000000000001
100
AcDbArc
 50
89.99999999999998
 51
171.5733407306349
  0
LINE
  5
864
330
1F
100
AcDbEntity
  8
INDUSA
  6
Continuous
100
AcDbLine
 10
317.8987585611326
 20
500.619160715675
 30
0.0
 11
317.9145597290407
 21
500.7258225767635
 31
0.0
  0
ARC
  5
867
330
1F
100
AcDbEntity
  8
INDUSA
  6
Continuous
100
AcDbCircle
 10
318.0598125956656
 20
500.3162068122659
 30
0.0
 40
0.2018
100
AcDbArc
 50
90.31231749047886
 51
110.2113579902827
  0
CIRCLE
  5
869
330
1F
100
AcDbEntity
  8
INDUSA
  6
Continuous
100
AcDbCircle
 10
317.9818125956656
 20
500.5775294901369
 30
0.0
 40
0.0064999999999999
  0
CIRCLE
  5
86B
330
1F
100
AcDbEntity
  8
INDUSA
  6
Continuous
100
AcDbCircle
 10
318.1356125956656
 20
500.5775294901369
 30
0.0
 40
0.0064999999999999
  0
ARC
  5
86E
330
1F
100
AcDbEntity
  8
INDUSA
  6
Continuous
100
AcDbCircle
 10
318.0576125956656
 20
500.3162068122659
 30
0.0
 40
0.2018
100
AcDbArc
 50
69.78864200971802
 51
89.68768250952109
  0
LINE
  5
870
330
1F
100
AcDbEntity
  8
INDUSA
  6
Continuous
100
AcDbLine
 10
318.2008870537812
 20
500.7275294901369
 30
0.0
 11
318.1988527684309
 21
500.7275294901369
 31
0.0
  0
LINE
  5
872
330
1F
100
AcDbEntity
  8
INDUSA
  6
Continuous
100
AcDbLine
 10
318.1988527684309
 20
500.7275294901369
 30
0.0
 11
318.0587125956656
 21
500.7275294901369
 31
0.0
  0
LINE
  5
876
330
1F
100
AcDbEntity
  8
INDUSA
  6
Continuous
100
AcDbLine
 10
317.9185724229002
 20
500.7275294901369
 30
0.0
 11
318.0587125956656
 21
500.7275294901369
 31
0.0
  0
LWPOLYLINE
  5
878
330
1F
100
AcDbEntity
  8
INDUSA
  6
Continuous
100
AcDbPolyline
 90
        5
 70
   128
 43
0.0
 10
318.2240717743515
 20
500.6081902849697
 10
318.2222786884757
 20
500.6103244434312
 10
318.2207733076077
 20
500.6127369436465
 10
318.2194621358026
 20
500.6158119442896
 10
318.2186666301985
 20
500.6191607156751
  0
ARC
  5
87B
330
1F
100
AcDbEntity
  8
INDUSA
  6
Continuous
100
AcDbCircle
 10
318.2384507152907
 20
500.6220915819403
 30
0.0
 40
0.0200000000000001
100
AcDbArc
 50
224.0323850246018
 51
259.5371135913628
  0
LWPOLYLINE
  5
882
330
1F
100
AcDbEntity
  8
INDUSA
  6
Continuous
100
AcDbPolyline
 90
        8
 70
   128
 43
0.0
 10
318.2915583770665
 20
500.5855819841114
 10
318.2915892665264
 20
500.5866166293492
 10
318.291387146121
 20
500.5875226570879
 10
318.2910343014416
 20
500.5882729037497
 10
318.2905944452619
 20
500.5888684931058
 10
318.2901225439055
 20
500.5893174520606
 10
318.28966722742
 20
500.5896353496964
 10
318.2890415058097
 20
500.5899643519318
  0
LINE
  5
889
330
1F
100
AcDbEntity
  8
INDUSA
  6
Continuous
100
AcDbLine
 10
318.2186666301985
 20
500.619160715675
 30
0.0
 11
318.2028654622905
 21
500.7258225767635
 31
0.0
  0
ARC
  5
88E
330
1F
100
AcDbEntity
  8
INDUSA
  6
Continuous
100
AcDbCircle
 10
318.2008870537812
 20
500.7255294901369
 30
0.0
 40
0.002
100
AcDbArc
 50
8.426659269365112
 51
89.99999999999998
  0
LWPOLYLINE
  5
88F
330
1F
100
AcDbEntity
  8
INDUSA
  6
Continuous
100
AcDbPolyline
 90
        6
 70
   128
 43
0.0
 10
318.2233743470967
 20
500.1651580572739
 10
318.2340568537984
 20
500.2304879640895
 10
318.2580722210206
 20
500.377874192929
 10
318.272912620601
 20
500.4694357364005
 10
318.2843872344906
 20
500.5406911545957
 10
318.2915541562177
 20
500.5855791667392
  0
LWPOLYLINE
  5
890
330
1F
100
AcDbEntity
  8
INDUSA
  6
Continuous
100
AcDbPolyline
 90
        7
 70
   128
 43
0.0
 10
317.8258666516955
 20
500.5855783731225
 10
317.8271580155493
 20
500.5774485972578
 10
317.8370183988498
 20
500.5159104761104
 10
317.8490964818666
 20
500.4411005223601
 10
317.864650115271
 20
500.3452986575074
 10
317.888606987363
 20
500.1984195340808
 10
317.8940474814916
 20
500.1651571334521
  0
ARC
  5
8A8
330
1F
100
AcDbEntity
  8
INDUSA
  6
Continuous
100
AcDbCircle
 10
320.2273097160143
 20
500.4858623693935
 30
0.0
 40
0.0005
100
AcDbArc
 50
180.0
 51
270.0
  0
ARC
  5
8A9
330
1F
100
AcDbEntity
  8
INDUSA
  6
Continuous
100
AcDbCircle
 10
320.2273097160143
 20
500.5522742281412
 30
0.0
 40
0.0005
100
AcDbArc
 50
90.0
 51
180.0
  0
ARC
  5
8AE
330
1F
100
AcDbEntity
  8
INDUSA
  6
Continuous
100
AcDbCircle
 10
320.1893097160143
 20
500.4342259203806
 30
0.0
 40
0.0005
100
AcDbArc
 50
90.0
 51
180.0
  0
ARC
  5
8AF
330
1F
100
AcDbEntity
  8
INDUSA
  6
Continuous
100
AcDbCircle
 10
320.1893097160143
 20
500.4252151612033
 30
0.0
 40
0.0005
100
AcDbArc
 50
180.0
 51
270.0
  0
ARC
  5
8B0
330
1F
100
AcDbEntity
  8
INDUSA
  6
Continuous
100
AcDbCircle
 10
320.1893097160143
 20
500.342333295079
 30
0.0
 40
0.0005
100
AcDbArc
 50
90.0
 51
180.0
  0
ARC
  5
8B1
330
1F
100
AcDbEntity
  8
INDUSA
  6
Continuous
100
AcDbCircle
 10
320.1893097160143
 20
500.3333231219164
 30
0.0
 40
0.0005
100
AcDbArc
 50
180.0
 51
270.0
  0
LINE
  5
8D3
330
1F
100
AcDbEntity
  8
INDUSA
100
AcDbLine
 10
320.2698214579916
 20
500.5705840018644
 30
0.0
 11
320.1687747703868
 21
500.5705840018644
 31
0.0
  0
LINE
  5
8D4
330
1F
100
AcDbEntity
  8
INDUSA
100
AcDbLine
 10
320.6632198052509
 20
500.4423642245511
 30
0.0
 11
320.6688002078244
 21
500.4453727438782
 31
0.0
  0
LINE
  5
8D5
330
1F
100
AcDbEntity
  8
INDUSA
100
AcDbLine
 10
320.2598097160143
 20
500.3328231219164
 30
0.0
 11
320.2608689597074
 21
500.3328347848399
 31
0.0
  0
LINE
  5
8D6
330
1F
100
AcDbEntity
  8
INDUSA
100
AcDbLine
 10
320.6032285378308
 20
500.4100247477321
 30
0.0
 11
320.6360632688829
 21
500.4277252344413
 31
0.0
  0
LINE
  5
8D7
330
1F
100
AcDbEntity
  8
INDUSA
100
AcDbLine
 10
320.5265942162861
 20
500.2682368395415
 30
0.0
 11
320.5160637443189
 21
500.2476671880674
 31
0.0
  0
ARC
  5
8D8
330
1F
100
AcDbEntity
  8
INDUSA
  6
Continuous
100
AcDbCircle
 10
320.4262947932803
 20
500.2936350404336
 30
0.0
 40
0.1008538944302049
100
AcDbArc
 50
270.0
 51
332.8844439279219
  0
ARC
  5
8D9
330
1F
100
AcDbEntity
  8
INDUSA
  6
Continuous
100
AcDbCircle
 10
320.575116468733
 20
500.2147742281411
 30
0.0
 40
0.0019999999999999
100
AcDbArc
 50
270.0
 51
350.5399604357605
  0
LINE
  5
8DA
330
1F
100
AcDbEntity
  8
INDUSA
  6
Continuous
100
AcDbLine
 10
320.568321857556
 20
500.2227742281411
 30
0.0
 11
320.5568097160143
 21
500.2227742281411
 31
0.0
  0
ARC
  5
8DD
330
1F
100
AcDbEntity
  8
INDUSA
  6
Continuous
100
AcDbCircle
 10
320.5488097160143
 20
500.2147742281411
 30
0.0
 40
0.002
100
AcDbArc
 50
180.0
 51
270.0
  0
LINE
  5
8DE
330
1F
100
AcDbEntity
  8
INDUSA
  6
Continuous
100
AcDbLine
 10
320.486569473347
 20
500.2127742281411
 30
0.0
 11
320.5488097160143
 21
500.2127742281411
 31
0.0
  0
LINE
  5
8DF
330
1F
100
AcDbEntity
  8
INDUSA
  6
Continuous
100
AcDbLine
 10
320.575116468733
 20
500.2127742281411
 30
0.0
 11
320.5488097160143
 21
500.2127742281411
 31
0.0
  0
LWPOLYLINE
  5
8E0
330
1F
100
AcDbEntity
  8
INDUSA
  6
Continuous
100
AcDbPolyline
 90
        3
 70
   128
 43
0.0
 10
320.5335794686267
 20
500.2819064203951
 10
320.5327064928965
 20
500.2802010097986
 10
320.5316915808674
 20
500.2782182997328
  0
LINE
  5
8E1
330
1F
100
AcDbEntity
  8
INDUSA
  6
Continuous
100
AcDbLine
 10
320.5265942162861
 20
500.2682368395415
 30
0.0
 11
320.5316781886436
 21
500.2782189800763
 31
0.0
  0
LWPOLYLINE
  5
8E3
330
1F
100
AcDbEntity
  8
INDUSA
  6
Continuous
100
AcDbPolyline
 90
        9
 70
   128
 43
0.0
 10
320.5335794686267
 20
500.2819064203951
 10
320.5349870974924
 20
500.2837901209273
 10
320.5369389999162
 20
500.285101623155
 10
320.539213992197
 20
500.2856923782553
 10
320.5415549218314
 20
500.2854965878196
 10
320.5436987917313
 20
500.2845371776427
 10
320.5454051426463
 20
500.282921934374
 10
320.5464818250418
 20
500.2808318011416
 10
320.5468097160143
 20
500.2787132283658
  0
LINE
  5
8E4
330
1F
100
AcDbEntity
  8
INDUSA
  6
Continuous
100
AcDbLine
 10
320.5468097160143
 20
500.2147742281411
 30
0.0
 11
320.5468097160143
 21
500.2787132283658
 31
0.0
  0
LINE
  5
8E6
330
1F
100
AcDbEntity
  8
INDUSA
  6
Continuous
100
AcDbLine
 10
320.4508339189432
 20
500.2827742281412
 30
0.0
 11
320.4406609642787
 21
500.2827742281412
 31
0.0
  0
LINE
  5
8EA
330
1F
100
AcDbEntity
  8
INDUSA
  6
Continuous
100
AcDbLine
 10
320.5071518903692
 20
500.2522306677775
 30
0.0
 11
320.5227881067868
 21
500.2827742281412
 31
0.0
  0
LWPOLYLINE
  5
8F7
330
1F
100
AcDbEntity
  8
INDUSA
  6
Continuous
100
AcDbPolyline
 90
        3
 70
   128
 43
0.0
 10
320.5947864104028
 20
500.4014642442648
 10
320.5759234957732
 20
500.3646197586827
 10
320.5568097160143
 20
500.3272847612621
  0
LWPOLYLINE
  5
901
330
1F
100
AcDbEntity
  8
INDUSA
  6
Continuous
100
AcDbPolyline
 90
        5
 70
   128
 43
0.0
 10
320.5858832041722
 20
500.4060202864266
 10
320.5683068233065
 20
500.3716890679863
 10
320.5502652642563
 20
500.3364487867915
 10
320.5365262763178
 20
500.3096117169588
 10
320.5227881067868
 20
500.2827742281412
  0
LWPOLYLINE
  5
902
330
1F
100
AcDbEntity
  8
INDUSA
  6
Continuous
100
AcDbPolyline
 90
        5
 70
   128
 43
0.0
 10
320.5770892696783
 20
500.214445508762
 10
320.580788660214
 20
500.2379174582092
 10
320.5840754640388
 20
500.2614581552143
 10
320.5888444444521
 20
500.3029532953815
 10
320.5922370234832
 20
500.3432717785001
  0
LINE
  5
903
330
1F
100
AcDbEntity
  8
INDUSA
  6
Continuous
100
AcDbLine
 10
320.5568097160143
 20
500.2227742281411
 30
0.0
 11
320.5568097160143
 21
500.3272847612621
 31
0.0
  0
LWPOLYLINE
  5
904
330
1F
100
AcDbEntity
  8
INDUSA
  6
Continuous
100
AcDbPolyline
 90
        6
 70
   128
 43
0.0
 10
320.568321857556
 20
500.2227742281411
 10
320.5719310396759
 20
500.2464736853474
 10
320.5751165758515
 20
500.2702415382186
 10
320.5797848357408
 20
500.3132531565923
 10
320.5815986253625
 20
500.3348285735487
 10
320.583070944374
 20
500.3564354776489
  0
LWPOLYLINE
  5
905
330
1F
100
AcDbEntity
  8
INDUSA
  6
Continuous
100
AcDbPolyline
 90
        5
 70
   128
 43
0.0
 10
320.4508339189432
 20
500.2827742281412
 10
320.4474033554963
 20
500.3017323910486
 10
320.4441631617789
 20
500.3207259839821
 10
320.4387858369581
 20
500.355198809716
 10
320.4340384294994
 20
500.3897758234013
  0
LWPOLYLINE
  5
90A
330
1F
100
AcDbEntity
  8
INDUSA
  6
Continuous
100
AcDbPolyline
 90
        5
 70
   128
 43
0.0
 10
320.5858832041722
 20
500.4060202864266
 10
320.5885145329681
 20
500.4102518752613
 10
320.5919148011694
 20
500.4140897933921
 10
320.5949503500812
 20
500.4166175164772
 10
320.5983538888722
 20
500.4187582513207
  0
LWPOLYLINE
  5
90B
330
1F
100
AcDbEntity
  8
INDUSA
  6
Continuous
100
AcDbPolyline
 90
        6
 70
   128
 43
0.0
 10
320.5922370234832
 20
500.3432717785001
 10
320.5927402973992
 20
500.346554965239
 10
320.5938180006584
 20
500.3497984704221
 10
320.5953796575328
 20
500.3527299935245
 10
320.5974702281898
 20
500.3554339324603
 10
320.599075792111
 20
500.3569941910901
  0
LWPOLYLINE
  5
90C
330
1F
100
AcDbEntity
  8
INDUSA
  6
Continuous
100
AcDbPolyline
 90
        5
 70
   128
 43
0.0
 10
320.5947864044717
 20
500.4014642347265
 10
320.5965405684776
 20
500.4042852322769
 10
320.5988073463187
 20
500.4068437913878
 10
320.6008884109261
 20
500.4085704869059
 10
320.6032285378308
 20
500.4100247477322
  0
LINE
  5
90E
330
1F
100
AcDbEntity
  8
INDUSA
  6
Continuous
100
AcDbLine
 10
320.7289072146508
 20
500.5111749122632
 30
0.0
 11
320.7256425111956
 21
500.5068404700553
 31
0.0
  0
LWPOLYLINE
  5
90F
330
1F
100
AcDbEntity
  8
INDUSA
  6
Continuous
100
AcDbPolyline
 90
        8
 70
   128
 43
0.0
 10
320.7281066750645
 20
500.5127742281412
 10
320.7284377001603
 20
500.5127178540035
 10
320.7287314047385
 20
500.5125550860788
 10
320.7289546702702
 20
500.512304277711
 10
320.7290823235624
 20
500.5119937141034
 10
320.7290999793127
 20
500.5116584132524
 10
320.7290056541383
 20
500.5113361744529
 10
320.7289072146508
 20
500.5111749122632
  0
LWPOLYLINE
  5
910
330
1F
100
AcDbEntity
  8
INDUSA
  6
Continuous
100
AcDbPolyline
 90
        6
 70
   128
 43
0.0
 10
320.7542497263891
 20
500.5396205656087
 10
320.7545883389612
 20
500.5363163421262
 10
320.7543610088273
 20
500.5329060585731
 10
320.7535868170649
 20
500.5296760151552
 10
320.7522434712055
 20
500.5265332211057
 10
320.7508962409865
 20
500.5243534428902
  0
LINE
  5
911
330
1F
100
AcDbEntity
  8
INDUSA
  6
Continuous
100
AcDbLine
 10
320.7452002739716
 20
500.5336191267046
 30
0.0
 11
320.7374536886214
 21
500.5227742281411
 31
0.0
  0
LINE
  5
916
330
1F
100
AcDbEntity
  8
INDUSA
  6
Continuous
100
AcDbLine
 10
320.7024824163679
 20
500.5127742281411
 30
0.0
 11
320.7079103584331
 21
500.5127742281411
 31
0.0
  0
LWPOLYLINE
  5
91B
330
1F
100
AcDbEntity
  8
INDUSA
  6
Continuous
100
AcDbPolyline
 90
        6
 70
   128
 43
0.0
 10
320.7079103584331
 20
500.5127742281412
 10
320.7069173296647
 20
500.5129433435697
 10
320.7060362573266
 20
500.5134316241387
 10
320.7053664790318
 20
500.5141840184125
 10
320.7049835082931
 20
500.515115694428
 10
320.7049103377
 20
500.5157742281411
  0
LINE
  5
91D
330
1F
100
AcDbEntity
  8
INDUSA
  6
Continuous
100
AcDbLine
 10
320.7079103584331
 20
500.5127742281411
 30
0.0
 11
320.7281066750645
 21
500.5127742281411
 31
0.0
  0
LINE
  5
91E
330
1F
100
AcDbEntity
  8
INDUSA
  6
Continuous
100
AcDbLine
 10
320.7149104061399
 20
500.5227742281411
 30
0.0
 11
320.7374536886214
 21
500.5227742281411
 31
0.0
  0
LWPOLYLINE
  5
924
330
1F
100
AcDbEntity
  8
INDUSA
  6
Continuous
100
AcDbPolyline
 90
        8
 70
   128
 43
0.0
 10
320.7256425111956
 20
500.5068404700554
 10
320.7156277778422
 20
500.494702713211
 10
320.7045634395869
 20
500.4833602735046
 10
320.6923225079713
 20
500.4727645594942
 10
320.6858263659648
 20
500.4678324639184
 10
320.6791246216484
 20
500.4631835876061
 10
320.671852001096
 20
500.4585999536936
 10
320.6643639373987
 20
500.4543415986114
  0
LINE
  5
925
330
1F
100
AcDbEntity
  8
INDUSA
  6
Continuous
100
AcDbLine
 10
320.6813945099582
 20
500.4527372915034
 30
0.0
 11
320.6688002078244
 21
500.4453727438782
 31
0.0
  0
LINE
  5
928
330
1F
100
AcDbEntity
  8
INDUSA
  6
Continuous
100
AcDbLine
 10
320.6629912496997
 20
500.5127742281411
 30
0.0
 11
320.7024824163679
 21
500.5127742281411
 31
0.0
  0
LWPOLYLINE
  5
92A
330
1F
100
AcDbEntity
  8
INDUSA
  6
Continuous
100
AcDbPolyline
 90
        6
 70
   128
 43
0.0
 10
320.7413491418209
 20
500.5623006325375
 10
320.7446768917951
 20
500.5618527779872
 10
320.747668810022
 20
500.5603286648144
 10
320.7499875704507
 20
500.5579001291437
 10
320.7513717463709
 20
500.5548409852874
 10
320.7515270941503
 20
500.5541486896308
  0
LWPOLYLINE
  5
92B
330
1F
100
AcDbEntity
  8
INDUSA
  6
Continuous
100
AcDbPolyline
 90
        7
 70
   128
 43
0.0
 10
320.7356545195716
 20
500.5623002247658
 10
320.7370947242803
 20
500.5623003149603
 10
320.7383263916435
 20
500.5623004222614
 10
320.7393484165341
 20
500.5623005149266
 10
320.7401611279987
 20
500.5623005783895
 10
320.7407638922108
 20
500.5623006113137
 10
320.7408043399263
 20
500.5623006122803
  0
LWPOLYLINE
  5
92C
330
1F
100
AcDbEntity
  8
INDUSA
  6
Continuous
100
AcDbPolyline
 90
        3
 70
   128
 43
0.0
 10
320.728412109298
 20
500.5627133108431
 10
320.7324027414753
 20
500.5624093588478
 10
320.7356545195819
 20
500.5623002247662
  0
LWPOLYLINE
  5
92D
330
1F
100
AcDbEntity
  8
INDUSA
  6
Continuous
100
AcDbPolyline
 90
        6
 70
   128
 43
0.0
 10
320.7049103377
 20
500.5533026602555
 10
320.7053613056676
 20
500.5559506912535
 10
320.7066633642505
 20
500.5583001767593
 10
320.7086697203663
 20
500.5600862393143
 10
320.7111541865075
 20
500.5611075166124
 10
320.7126311949673
 20
500.5612977869304
  0
LWPOLYLINE
  5
931
330
1F
100
AcDbEntity
  8
INDUSA
  6
Continuous
100
AcDbPolyline
 90
        3
 70
   128
 43
0.0
 10
320.7126311949673
 20
500.5612977869304
 10
320.724969977499
 20
500.5617286635558
 10
320.7413491418209
 20
500.5623006325375
  0
LINE
  5
932
330
1F
100
AcDbEntity
  8
INDUSA
  6
Continuous
100
AcDbLine
 10
320.7149104061399
 20
500.5527742281412
 30
0.0
 11
320.7416105264839
 21
500.5527742281412
 31
0.0
  0
LINE
  5
933
330
1F
100
AcDbEntity
  8
INDUSA
  6
Continuous
100
AcDbLine
 10
320.7139075720467
 20
500.5627133108431
 30
0.0
 11
320.728412109298
 21
500.5627133108431
 31
0.0
  0
LINE
  5
939
330
1F
100
AcDbEntity
  8
INDUSA
  6
Continuous
100
AcDbLine
 10
320.6655981299483
 20
500.5623632194136
 30
0.0
 11
320.7139075720467
 21
500.5627133108431
 31
0.0
  0
LINE
  5
93A
330
1F
100
AcDbEntity
  8
INDUSA
  6
Continuous
100
AcDbLine
 10
320.7049103377
 20
500.5157742281411
 30
0.0
 11
320.7049103377
 21
500.5533026602554
 31
0.0
  0
LINE
  5
93B
330
1F
100
AcDbEntity
  8
INDUSA
  6
Continuous
100
AcDbLine
 10
320.7542497263891
 20
500.5396205656087
 30
0.0
 11
320.7515270941503
 21
500.5541486896308
 31
0.0
  0
LINE
  5
93C
330
1F
100
AcDbEntity
  8
INDUSA
  6
Continuous
100
AcDbLine
 10
320.7149104061399
 20
500.5227742281411
 30
0.0
 11
320.7149104061399
 21
500.5527742281412
 31
0.0
  0
LINE
  5
93D
330
1F
100
AcDbEntity
  8
INDUSA
  6
Continuous
100
AcDbLine
 10
320.7452002739716
 20
500.5336191267046
 30
0.0
 11
320.7416105264839
 21
500.5527742281412
 31
0.0
  0
LINE
  5
94A
330
1F
100
AcDbEntity
  8
INDUSA
  6
Continuous
100
AcDbLine
 10
320.5237515392674
 20
500.5627698656089
 30
0.0
 11
320.5207950837591
 21
500.5627704820843
 31
0.0
  0
LINE
  5
94E
330
1F
100
AcDbEntity
  8
INDUSA
  6
Continuous
100
AcDbLine
 10
320.5237391108539
 20
500.5627687901202
 30
0.0
 11
320.5783260694813
 21
500.562652393545
 31
0.0
  0
LINE
  5
94F
330
1F
100
AcDbEntity
  8
INDUSA
  6
Continuous
100
AcDbLine
 10
320.5131266136649
 20
500.5627742281411
 30
0.0
 11
320.5237391108539
 21
500.5627687901202
 31
0.0
  0
LINE
  5
953
330
1F
100
AcDbEntity
  8
INDUSA
  6
Continuous
100
AcDbLine
 10
320.5201121348746
 20
500.5127742281411
 30
0.0
 11
320.6629912496997
 21
500.5127742281411
 31
0.0
  0
LINE
  5
956
330
1F
100
AcDbEntity
  8
INDUSA
  6
Continuous
100
AcDbLine
 10
320.5783260694813
 20
500.562652393545
 30
0.0
 11
320.6655981299483
 21
500.5623632194136
 31
0.0
  0
LWPOLYLINE
  5
957
330
1F
100
AcDbEntity
  8
INDUSA
  6
Continuous
100
AcDbPolyline
 90
        3
 70
   128
 43
0.0
 10
320.6643639373987
 20
500.4543415986114
 10
320.6313208501095
 20
500.43652940559
 10
320.5983538888722
 20
500.4187582513207
  0
LWPOLYLINE
  5
958
330
1F
100
AcDbEntity
  8
INDUSA
  6
Continuous
100
AcDbPolyline
 90
        9
 70
   128
 43
0.0
 10
320.7508962409865
 20
500.5243534428902
 10
320.7380787776416
 20
500.5067427658551
 10
320.7248613266387
 20
500.4894302755082
 10
320.7112216921049
 20
500.4723896037705
 10
320.6971946422379
 20
500.4556663857926
 10
320.673832703987
 20
500.4294497219192
 10
320.6495196828563
 20
500.4041125733569
 10
320.6247245349859
 20
500.3800964654962
 10
320.599075792111
 20
500.3569941910901
  0
LWPOLYLINE
  5
959
330
1F
100
AcDbEntity
  8
INDUSA
  6
Continuous
100
AcDbPolyline
 90
        7
 70
   128
 43
0.0
 10
320.6813904669715
 20
500.4527377557232
 10
320.6635858164588
 20
500.4331122696319
 10
320.6452212427781
 20
500.4139805719002
 10
320.63018997093
 20
500.3990944125899
 10
320.6148204882961
 20
500.3845421774987
 10
320.5991043756536
 20
500.3703174445647
 10
320.583070944374
 20
500.3564354776489
  0
LWPOLYLINE
  5
95A
330
1F
100
AcDbEntity
  8
INDUSA
  6
Continuous
100
AcDbPolyline
 90
        2
 70
   128
 43
0.0
 10
320.6632198052509
 20
500.4423642245511
 10
320.6360632688829
 20
500.4277252344413
  0
LWPOLYLINE
  5
960
330
1F
100
AcDbEntity
  8
INDUSA
  6
Continuous
100
AcDbPolyline
 90
        9
 70
   128
 43
0.0
 10
320.2969595681219
 20
500.2127742281412
 10
320.2968740393775
 20
500.2128126575803
 10
320.2967917974548
 20
500.2129264690761
 10
320.2967160028648
 20
500.2131112889165
 10
320.296649568351
 20
500.2133600145788
 10
320.2965950469546
 20
500.2136630876751
 10
320.2965545339022
 20
500.2140088612764
 10
320.2965295860877
 20
500.2143840474971
 10
320.2965211622416
 20
500.2147742281412
  0
LINE
  5
966
330
1F
100
AcDbEntity
  8
INDUSA
  6
Continuous
100
AcDbLine
 10
320.2921008031859
 20
500.2127742281411
 30
0.0
 11
320.2969595681219
 21
500.2127742281411
 31
0.0
  0
LINE
  5
968
330
1F
100
AcDbEntity
  8
INDUSA
  6
Continuous
100
AcDbLine
 10
320.2969595681219
 20
500.2127742281411
 30
0.0
 11
320.3671462589503
 21
500.2127742281411
 31
0.0
  0
LINE
  5
96A
330
1F
100
AcDbEntity
  8
INDUSA
  6
Continuous
100
AcDbLine
 10
320.2750660605254
 20
500.3330212416422
 30
0.0
 11
320.2965058947289
 21
500.3332967990707
 31
0.0
  0
LWPOLYLINE
  5
96B
330
1F
100
AcDbEntity
  8
INDUSA
  6
Continuous
100
AcDbPolyline
 90
        5
 70
   128
 43
0.0
 10
320.2733130130612
 20
500.3319368661695
 10
320.2737176193076
 20
500.3324745261084
 10
320.274277410454
 20
500.3328479325648
 10
320.2749289843028
 20
500.3330147405267
 10
320.2750660605254
 20
500.3330212416422
  0
LWPOLYLINE
  5
96E
330
1F
100
AcDbEntity
  8
INDUSA
  6
Continuous
100
AcDbPolyline
 90
        9
 70
   128
 43
0.0
 10
320.2963939842953
 20
500.3433080215584
 10
320.3014275891776
 20
500.3429431498089
 10
320.3063299180416
 20
500.3417442146988
 10
320.3109589267733
 20
500.3397338556645
 10
320.3151883332125
 20
500.3369803669095
 10
320.3188942048248
 20
500.3335501016497
 10
320.321977307815
 20
500.3295507305171
 10
320.3241100647211
 20
500.3256188821993
 10
320.325638752326
 20
500.3214151641974
  0
LWPOLYLINE
  5
96F
330
1F
100
AcDbEntity
  8
INDUSA
  6
Continuous
100
AcDbPolyline
 90
        9
 70
   128
 43
0.0
 10
320.2965058947289
 20
500.3332967990707
 10
320.2998632697659
 20
500.3330534891641
 10
320.303133099019
 20
500.3322539192372
 10
320.3062206831853
 20
500.3309129592911
 10
320.3090414882022
 20
500.3290759928874
 10
320.3115109719281
 20
500.3267888991245
 10
320.3135649121412
 20
500.3241223346373
 10
320.3149822101417
 20
500.3215071964529
 10
320.3159984026455
 20
500.3187116503473
  0
LINE
  5
970
330
1F
100
AcDbEntity
  8
INDUSA
  6
Continuous
100
AcDbLine
 10
320.325638752326
 20
500.3214151641973
 30
0.0
 11
320.3405567156668
 21
500.268309701472
 31
0.0
  0
LINE
  5
971
330
1F
100
AcDbEntity
  8
INDUSA
  6
Continuous
100
AcDbLine
 10
320.3159984026455
 20
500.3187116503473
 30
0.0
 11
320.3309213127706
 21
500.2655885778947
 31
0.0
  0
LINE
  5
972
330
1F
100
AcDbEntity
  8
INDUSA
  6
Continuous
100
AcDbLine
 10
320.2965211622416
 20
500.2147742281411
 30
0.0
 11
320.2965211622416
 21
500.3332956926298
 31
0.0
  0
LWPOLYLINE
  5
974
330
1F
100
AcDbEntity
  8
INDUSA
  6
Continuous
100
AcDbPolyline
 90
        5
 70
   128
 43
0.0
 10
320.2062764307149
 20
500.2238569423016
 10
320.2061547429534
 20
500.2236521129803
 10
320.2057106239954
 20
500.2231828682751
 10
320.2051411896353
 20
500.2228800698324
 10
320.2044991894007
 20
500.2227742281411
  0
ARC
  5
975
330
1F
100
AcDbEntity
  8
INDUSA
  6
Continuous
100
AcDbCircle
 10
320.210591294912
 20
500.2147742281411
 30
0.0
 40
0.0020000000000002
100
AcDbArc
 50
270.0
 51
332.7004277886745
  0
LINE
  5
978
330
1F
100
AcDbEntity
  8
INDUSA
  6
Continuous
100
AcDbLine
 10
320.210591294912
 20
500.2127742281411
 30
0.0
 11
320.2150926532456
 21
500.2127742281411
 31
0.0
  0
LWPOLYLINE
  5
97B
330
1F
100
AcDbEntity
  8
INDUSA
  6
Continuous
100
AcDbPolyline
 90
        5
 70
   128
 43
0.0
 10
320.258808320754
 20
500.3038340248244
 10
320.2584043167605
 20
500.3032971916769
 10
320.2578453857813
 20
500.3029243527165
 10
320.2571946176133
 20
500.302757604031
 10
320.2570306183323
 20
500.302750868187
  0
LINE
  5
97C
330
1F
100
AcDbEntity
  8
INDUSA
  6
Continuous
100
AcDbLine
 10
320.250278580832
 20
500.3027508681869
 30
0.0
 11
320.2570306183323
 21
500.3027508681869
 31
0.0
  0
LWPOLYLINE
  5
97D
330
1F
100
AcDbEntity
  8
INDUSA
  6
Continuous
100
AcDbPolyline
 90
        7
 70
   128
 43
0.0
 10
320.250278580832
 20
500.302750868187
 10
320.2496167200465
 20
500.3028635783886
 10
320.2490294779407
 20
500.303189021054
 10
320.2485830845405
 20
500.3036904687958
 10
320.2483277729153
 20
500.304311458111
 10
320.2482923344234
 20
500.3049821120511
 10
320.2485018006255
 20
500.3056685965035
  0
LINE
  5
97E
330
1F
100
AcDbEntity
  8
INDUSA
  6
Continuous
100
AcDbLine
 10
320.2123685362262
 20
500.2138569423016
 30
0.0
 11
320.258808320754
 21
500.3038340248244
 31
0.0
  0
LINE
  5
97F
330
1F
100
AcDbEntity
  8
INDUSA
  6
Continuous
100
AcDbLine
 10
320.2485018006255
 20
500.3056685965034
 30
0.0
 11
320.2062764307149
 21
500.2238569423016
 31
0.0
  0
ARC
  5
981
330
1F
100
AcDbEntity
  8
INDUSA
  6
Continuous
100
AcDbCircle
 10
320.1688097160143
 20
500.2207742281411
 30
0.0
 40
0.002
100
AcDbArc
 50
90.0
 51
180.0
  0
LINE
  5
983
330
1F
100
AcDbEntity
  8
INDUSA
  6
Continuous
100
AcDbLine
 10
320.1668097160143
 20
500.2207742281411
 30
0.0
 11
320.1668097160143
 21
500.2147742281411
 31
0.0
  0
ARC
  5
985
330
1F
100
AcDbEntity
  8
INDUSA
  6
Continuous
100
AcDbCircle
 10
320.1688097160143
 20
500.2147742281411
 30
0.0
 40
0.0020000000000002
100
AcDbArc
 50
180.0
 51
270.0
  0
LINE
  5
988
330
1F
100
AcDbEntity
  8
INDUSA
  6
Continuous
100
AcDbLine
 10
320.1668097160143
 20
500.2207742281411
 30
0.0
 11
320.1668097160143
 21
500.2247742281411
 31
0.0
  0
LINE
  5
989
330
1F
100
AcDbEntity
  8
INDUSA
  6
Continuous
100
AcDbLine
 10
320.2044991894007
 20
500.2227742281411
 30
0.0
 11
320.1688097160143
 21
500.2227742281411
 31
0.0
  0
LINE
  5
98A
330
1F
100
AcDbEntity
  8
INDUSA
  6
Continuous
100
AcDbLine
 10
320.1688097160143
 20
500.2127742281411
 30
0.0
 11
320.210591294912
 21
500.2127742281411
 31
0.0
  0
LWPOLYLINE
  5
98C
330
1F
100
AcDbEntity
  8
INDUSA
  6
Continuous
100
AcDbPolyline
 90
        7
 70
   128
 43
0.0
 10
320.2608689597074
 20
500.3328347848399
 10
320.2612003697174
 20
500.3327828402966
 10
320.2614959016158
 20
500.3326241110123
 10
320.2617221800553
 20
500.3323765717367
 10
320.2618538948084
 20
500.332067992083
 10
320.2618761930338
 20
500.3317328792926
 10
320.2617697774905
 20
500.3313753016795
  0
LINE
  5
98D
330
1F
100
AcDbEntity
  8
INDUSA
  6
Continuous
100
AcDbLine
 10
320.1888097160143
 20
500.342333295079
 30
0.0
 11
320.1888097160143
 21
500.3333231219164
 31
0.0
  0
LINE
  5
98E
330
1F
100
AcDbEntity
  8
INDUSA
  6
Continuous
100
AcDbLine
 10
320.2598097160143
 20
500.342833295079
 30
0.0
 11
320.1893097160143
 21
500.342833295079
 31
0.0
  0
LINE
  5
98F
330
1F
100
AcDbEntity
  8
INDUSA
  6
Continuous
100
AcDbLine
 10
320.1893097160143
 20
500.3328231219164
 30
0.0
 11
320.2598097160143
 21
500.3328231219164
 31
0.0
  0
LINE
  5
990
330
1F
100
AcDbEntity
  8
INDUSA
  6
Continuous
100
AcDbLine
 10
320.1893097160143
 20
500.4247151612033
 30
0.0
 11
320.2598097160143
 21
500.4247151612033
 31
0.0
  0
LINE
  5
992
330
1F
100
AcDbEntity
  8
INDUSA
  6
Continuous
100
AcDbLine
 10
320.2617697774905
 20
500.3313753016795
 30
0.0
 11
320.2485018006255
 21
500.3056685965034
 31
0.0
  0
LINE
  5
994
330
1F
100
AcDbEntity
  8
INDUSA
  6
Continuous
100
AcDbLine
 10
320.2598097160143
 20
500.342833295079
 30
0.0
 11
320.2963939842953
 21
500.3433080215583
 31
0.0
  0
LINE
  5
995
330
1F
100
AcDbEntity
  8
INDUSA
  6
Continuous
100
AcDbLine
 10
320.2733130130612
 20
500.3319368661695
 30
0.0
 11
320.258808320754
 21
500.3038340248244
 31
0.0
  0
LWPOLYLINE
  5
996
330
1F
100
AcDbEntity
  8
INDUSA
  6
Continuous
100
AcDbPolyline
 90
        7
 70
   128
 43
0.0
 10
320.4241183100684
 20
500.3885052657323
 10
320.421225330743
 20
500.4060452950092
 10
320.417251440022
 20
500.4228430520925
 42
0.3460237383944945
 10
320.4167678615069
 20
500.4232279340808
 10
320.3527191208368
 20
500.423611081818
 10
320.3062639995419
 20
500.4241180625367
 10
320.2598097160143
 20
500.4247151612033
  0
LINE
  5
999
330
1F
100
AcDbEntity
  8
INDUSA
  6
Continuous
100
AcDbLine
 10
320.2150926532456
 20
500.2127742281411
 30
0.0
 11
320.2917522344884
 21
500.2127742281411
 31
0.0
  0
LWPOLYLINE
  5
99A
330
1F
100
AcDbEntity
  8
INDUSA
  6
Continuous
100
AcDbPolyline
 90
        7
 70
   128
 43
0.0
 10
320.3803364898529
 20
500.4347452345174
 10
320.3803967172421
 20
500.4344159494008
 10
320.3803443652099
 20
500.4340852541864
 10
320.3801858744778
 20
500.4337919425308
 10
320.3799395731246
 20
500.4335676736355
 10
320.3796317503943
 20
500.433436288097
 10
320.3793882235433
 20
500.4334082344997
  0
LINE
  5
99B
330
1F
100
AcDbEntity
  8
INDUSA
  6
Continuous
100
AcDbLine
 10
320.3758315157738
 20
500.4766881083197
 30
0.0
 11
320.3729114793381
 21
500.4847108424907
 31
0.0
  0
LWPOLYLINE
  5
99C
330
1F
100
AcDbEntity
  8
INDUSA
  6
Continuous
100
AcDbPolyline
 90
        6
 70
   128
 43
0.0
 10
320.3758315157738
 20
500.4766881083197
 10
320.3758902514536
 20
500.4763645613589
 10
320.3758388838127
 20
500.4760398829183
 10
320.3756830187452
 20
500.4757464894907
 10
320.375434777595
 20
500.4755138604594
 10
320.375210983044
 20
500.4754008543549
  0
LWPOLYLINE
  5
99D
330
1F
100
AcDbEntity
  8
INDUSA
  6
Continuous
100
AcDbPolyline
 90
        3
 70
   128
 43
0.0
 10
320.3749722819964
 20
500.4752775243191
 10
320.3749929725869
 20
500.4752915266695
 10
320.375210983044
 20
500.4754008543549
  0
LINE
  5
99E
330
1F
100
AcDbEntity
  8
INDUSA
  6
Continuous
100
AcDbLine
 10
320.3741721891773
 20
500.4752775245467
 30
0.0
 11
320.3749722819964
 21
500.475277524319
 31
0.0
  0
LWPOLYLINE
  5
99F
330
1F
100
AcDbEntity
  8
INDUSA
  6
Continuous
100
AcDbPolyline
 90
        5
 70
   128
 43
0.0
 10
320.364861886478
 20
500.4753388170976
 10
320.3651932764766
 20
500.4752825029121
 10
320.3654873227938
 20
500.4751195316445
 10
320.3657098112112
 20
500.4748690089398
 10
320.3658002527321
 20
500.4746832177708
  0
LINE
  5
9A2
330
1F
100
AcDbEntity
  8
INDUSA
  6
Continuous
100
AcDbLine
 10
320.3894340222192
 20
500.4333459828846
 30
0.0
 11
320.3741721891773
 21
500.4752775245467
 31
0.0
  0
LINE
  5
9A3
330
1F
100
AcDbEntity
  8
INDUSA
  6
Continuous
100
AcDbLine
 10
320.3803364898529
 20
500.4347452345174
 30
0.0
 11
320.3658002527321
 21
500.4746832177708
 31
0.0
  0
LINE
  5
9A5
330
1F
100
AcDbEntity
  8
INDUSA
  6
Continuous
100
AcDbLine
 10
320.3967124197615
 20
500.5127742281411
 30
0.0
 11
320.4040215327615
 21
500.5127742281411
 31
0.0
  0
LINE
  5
9A6
330
1F
100
AcDbEntity
  8
INDUSA
  6
Continuous
100
AcDbLine
 10
320.4040215327615
 20
500.5127742281411
 30
0.0
 11
320.4150360867006
 21
500.5127742281411
 31
0.0
  0
LINE
  5
9A7
330
1F
100
AcDbEntity
  8
INDUSA
  6
Continuous
100
AcDbLine
 10
320.3967124197615
 20
500.5227742281411
 30
0.0
 11
320.397021142196
 21
500.5227742281411
 31
0.0
  0
LWPOLYLINE
  5
9A9
330
1F
100
AcDbEntity
  8
INDUSA
  6
Continuous
100
AcDbPolyline
 90
        7
 70
   128
 43
0.0
 10
320.407021708442
 20
500.5157742281411
 10
320.4070167782085
 20
500.5156023114783
 10
320.4067910467135
 20
500.5146206728964
 10
320.4062531155741
 20
500.5137690799817
 10
320.4054636047737
 20
500.5131435115117
 10
320.4048819707971
 20
500.5129002531622
 10
320.4040215327615
 20
500.5127742281412
  0
LINE
  5
9AA
330
1F
100
AcDbEntity
  8
INDUSA
  6
Continuous
100
AcDbLine
 10
320.3967124197615
 20
500.5227742281411
 30
0.0
 11
320.3967124197615
 21
500.5127742281411
 31
0.0
  0
LINE
  5
9AC
330
1F
100
AcDbEntity
  8
INDUSA
  6
Continuous
100
AcDbLine
 10
320.3870222265773
 20
500.5127742281411
 30
0.0
 11
320.3873081654051
 21
500.5127742281411
 31
0.0
  0
LWPOLYLINE
  5
9AD
330
1F
100
AcDbEntity
  8
INDUSA
  6
Continuous
100
AcDbPolyline
 90
        8
 70
   128
 43
0.0
 10
320.386233877802
 20
500.5111589257673
 10
320.3860746403172
 20
500.5114545230314
 10
320.386022224868
 20
500.5117861663186
 10
320.3860825401699
 20
500.5121164537427
 10
320.3862487803805
 20
500.5124081590443
 10
320.3865022124264
 20
500.5126284089467
 10
320.3868142808645
 20
500.5127523717493
 10
320.3870222265773
 20
500.5127742281412
  0
LINE
  5
9B0
330
1F
100
AcDbEntity
  8
INDUSA
  6
Continuous
100
AcDbLine
 10
320.3849545058857
 20
500.5227742281411
 30
0.0
 11
320.3873081654051
 21
500.5227742281411
 31
0.0
  0
LWPOLYLINE
  5
9B2
330
1F
100
AcDbEntity
  8
INDUSA
  6
Continuous
100
AcDbPolyline
 90
        8
 70
   128
 43
0.0
 10
320.3771594399189
 20
500.5065096128003
 10
320.3755251491219
 20
500.5094426360943
 10
320.3749538438744
 20
500.512751287215
 10
320.3755099302826
 20
500.5160624350876
 10
320.377130658882
 20
500.5190028666905
 10
320.3796333794526
 20
500.5212411996073
 10
320.3827360848243
 20
500.5225250903229
 10
320.3849545058857
 20
500.5227742281411
  0
LINE
  5
9B3
330
1F
100
AcDbEntity
  8
INDUSA
  6
Continuous
100
AcDbLine
 10
320.3873081654051
 20
500.5127742281411
 30
0.0
 11
320.3873081654051
 21
500.5227742281411
 31
0.0
  0
LWPOLYLINE
  5
9B6
330
1F
100
AcDbEntity
  8
INDUSA
  6
Continuous
100
AcDbPolyline
 90
        5
 70
   128
 43
0.0
 10
320.3719658568061
 20
500.4853623693935
 10
320.3723046896906
 20
500.4853051584425
 10
320.3726053624548
 20
500.4851383472336
 10
320.3728282605088
 20
500.4848840704202
 10
320.3729114793381
 20
500.4847108424908
  0
LWPOLYLINE
  5
9B7
330
1F
100
AcDbEntity
  8
INDUSA
  6
Continuous
100
AcDbPolyline
 90
        9
 70
   128
 43
0.0
 10
320.3771594399189
 20
500.5065096128003
 10
320.3820026379059
 20
500.5001213016744
 10
320.386516086201
 20
500.493494460531
 10
320.3947610254266
 20
500.479585747212
 10
320.4021189064799
 20
500.4648411625317
 10
320.4085345157011
 20
500.449584958818
 10
320.4139971379011
 20
500.4339120485546
 42
-0.5175190563302242
 10
320.4135229497575
 20
500.4332474921382
 10
320.3894340222192
 20
500.4333459828846
  0
LINE
  5
9BC
330
1F
100
AcDbEntity
  8
INDUSA
  6
Continuous
100
AcDbLine
 10
320.2929450664168
 20
500.4753388170976
 30
0.0
 11
320.2929450664168
 21
500.434305766549
 31
0.0
  0
LWPOLYLINE
  5
9BD
330
1F
100
AcDbEntity
  8
INDUSA
  6
Continuous
100
AcDbPolyline
 90
        7
 70
   128
 43
0.0
 10
320.399300462472
 20
500.5612978060843
 10
320.4000512473893
 20
500.5612361040079
 10
320.4016868473928
 20
500.5608455826166
 10
320.4040335047896
 20
500.5595380738673
 10
320.4058150797353
 20
500.5575275034878
 10
320.4068306334121
 20
500.555040641964
 10
320.407021708442
 20
500.553302679468
  0
LWPOLYLINE
  5
9C1
330
1F
100
AcDbEntity
  8
INDUSA
  6
Continuous
100
AcDbPolyline
 90
        3
 70
   128
 43
0.0
 10
320.3535281825826
 20
500.5627742281411
 10
320.3560649571904
 20
500.5627581406373
 10
320.3605083483989
 20
500.562652393545
  0
LINE
  5
9C4
330
1F
100
AcDbEntity
  8
INDUSA
  6
Continuous
100
AcDbLine
 10
320.367263494738
 20
500.5627742281411
 30
0.0
 11
320.3535281825826
 21
500.5627742281411
 31
0.0
  0
LWPOLYLINE
  5
9C5
330
1F
100
AcDbEntity
  8
INDUSA
  6
Continuous
100
AcDbPolyline
 90
        3
 70
   128
 43
0.0
 10
320.3605083483989
 20
500.562652393545
 10
320.3667755987571
 20
500.5624335451523
 10
320.399300462472
 20
500.5612978060843
  0
LWPOLYLINE
  5
9C7
330
1F
100
AcDbEntity
  8
INDUSA
  6
Continuous
100
AcDbPolyline
 90
        6
 70
   128
 43
0.0
 10
320.2698214579916
 20
500.5705840018644
 10
320.2714780331044
 20
500.5704753297906
 10
320.2731396864646
 20
500.5700789590173
 10
320.2746672437263
 20
500.5694282127056
 10
320.2761044805484
 20
500.5685046073347
 10
320.2769112746963
 20
500.5678115974783
  0
LWPOLYLINE
  5
9C8
330
1F
100
AcDbEntity
  8
INDUSA
  6
Continuous
100
AcDbPolyline
 90
        6
 70
   128
 43
0.0
 10
320.2894842886954
 20
500.5627742281411
 10
320.2864699935937
 20
500.5630250198216
 10
320.2834556814303
 20
500.5638004249008
 10
320.2806947520051
 20
500.5650350389026
 10
320.2781074926612
 20
500.5667647414336
 10
320.2769114384544
 20
500.5678114814894
  0
LINE
  5
9C9
330
1F
100
AcDbEntity
  8
INDUSA
  6
Continuous
100
AcDbLine
 10
320.2894807136063
 20
500.5627742281411
 30
0.0
 11
320.3535281825826
 21
500.5627742281411
 31
0.0
  0
LINE
  5
9CA
330
1F
100
AcDbEntity
  8
INDUSA
  6
Continuous
100
AcDbLine
 10
320.407021708442
 20
500.553302679468
 30
0.0
 11
320.407021708442
 21
500.5157742281411
 31
0.0
  0
LINE
  5
9CB
330
1F
100
AcDbEntity
  8
INDUSA
  6
Continuous
100
AcDbLine
 10
320.397021142196
 20
500.5527742281412
 30
0.0
 11
320.397021142196
 21
500.5227742281411
 31
0.0
  0
LINE
  5
9D6
330
1F
100
AcDbEntity
  8
INDUSA
  6
Continuous
100
AcDbLine
 10
320.1888097160143
 20
500.484359267293
 30
0.0
 11
320.1888097160143
 21
500.476340589838
 31
0.0
  0
LWPOLYLINE
  5
9D7
330
1F
100
AcDbEntity
  8
INDUSA
  6
Continuous
100
AcDbPolyline
 90
        7
 70
   128
 43
0.0
 10
320.1898097160143
 20
500.4753388170976
 10
320.1895934246315
 20
500.4753625291069
 10
320.1892830040221
 20
500.475489033056
 10
320.1891179122189
 20
500.4756172146579
 10
320.1889177597242
 20
500.4758876547894
 10
320.1888183703888
 20
500.4762090738203
 10
320.1888097160143
 20
500.4763405898381
  0
LINE
  5
9DA
330
1F
100
AcDbEntity
  8
INDUSA
  6
Continuous
100
AcDbLine
 10
320.2598097160143
 20
500.4347259203806
 30
0.0
 11
320.1893097160143
 21
500.4347259203806
 31
0.0
  0
LINE
  5
9DB
330
1F
100
AcDbEntity
  8
INDUSA
  6
Continuous
100
AcDbLine
 10
320.2158097160143
 20
500.4853623693935
 30
0.0
 11
320.1898097160143
 21
500.4853623693935
 31
0.0
  0
LWPOLYLINE
  5
9DC
330
1F
100
AcDbEntity
  8
INDUSA
  6
Continuous
100
AcDbPolyline
 90
        7
 70
   128
 43
0.0
 10
320.2168097160143
 20
500.4863657067891
 10
320.2168091428472
 20
500.4863317369694
 10
320.2167411684072
 20
500.4860006003169
 10
320.2165673563938
 20
500.4857108283201
 10
320.2163078272206
 20
500.4854956856119
 10
320.216114835168
 20
500.4854102088097
 10
320.2158097160143
 20
500.4853623693935
  0
LINE
  5
9DD
330
1F
100
AcDbEntity
  8
INDUSA
  6
Continuous
100
AcDbLine
 10
320.2168097160143
 20
500.4863657067891
 30
0.0
 11
320.2168097160143
 21
500.4943525018377
 31
0.0
  0
LWPOLYLINE
  5
9DE
330
1F
100
AcDbEntity
  8
INDUSA
  6
Continuous
100
AcDbPolyline
 90
        7
 70
   128
 43
0.0
 10
320.2168097160143
 20
500.4943525018377
 10
320.2168311655319
 20
500.4945593942633
 10
320.2169549353272
 20
500.4948737604684
 10
320.2171758800354
 20
500.4951294001462
 10
320.2174684016831
 20
500.4952966601306
 10
320.21779839445
 20
500.4953569309
 10
320.2178097160143
 20
500.4953569952955
  0
LINE
  5
9DF
330
1F
100
AcDbEntity
  8
INDUSA
  6
Continuous
100
AcDbLine
 10
320.2178097160143
 20
500.4953569952954
 30
0.0
 11
320.2258097160143
 21
500.4953569952954
 31
0.0
  0
LWPOLYLINE
  5
9E0
330
1F
100
AcDbEntity
  8
INDUSA
  6
Continuous
100
AcDbPolyline
 90
        7
 70
   128
 43
0.0
 10
320.2258097160143
 20
500.4953569952955
 10
320.2259544400555
 20
500.4953464173539
 10
320.2262722773595
 20
500.4952430471282
 10
320.2265385030524
 20
500.4950402642968
 10
320.2267237104325
 20
500.4947599914354
 10
320.2267882670915
 20
500.4945593914256
 10
320.2268097160143
 20
500.4943525018377
  0
LINE
  5
9E1
330
1F
100
AcDbEntity
  8
INDUSA
  6
Continuous
100
AcDbLine
 10
320.2268097160143
 20
500.4858623693935
 30
0.0
 11
320.2268097160143
 21
500.4943525018377
 31
0.0
  0
LWPOLYLINE
  5
9E2
330
1F
100
AcDbEntity
  8
INDUSA
  6
Continuous
100
AcDbPolyline
 90
        7
 70
   128
 43
0.0
 10
320.2268097160143
 20
500.5311959544447
 10
320.2267939822323
 20
500.5310185045403
 10
320.226679254676
 20
500.5306999332068
 10
320.2264655580448
 20
500.5304377113575
 10
320.2261778683772
 20
500.530262027925
 10
320.2259751403767
 20
500.5302053039259
 10
320.2258097160143
 20
500.5301914609868
  0
LINE
  5
9E3
330
1F
100
AcDbEntity
  8
INDUSA
  6
Continuous
100
AcDbLine
 10
320.2258097160143
 20
500.5301914609868
 30
0.0
 11
320.2178097160143
 21
500.5301914609868
 31
0.0
  0
LWPOLYLINE
  5
9E4
330
1F
100
AcDbEntity
  8
INDUSA
  6
Continuous
100
AcDbPolyline
 90
        7
 70
   128
 43
0.0
 10
320.2178097160143
 20
500.5301914609868
 10
320.2176442887887
 20
500.5302053044085
 10
320.2173279166651
 20
500.5303157631754
 10
320.2170659075258
 20
500.5305246144864
 10
320.2168869122282
 20
500.5308090121318
 10
320.2168113843573
 20
500.5311379683795
 10
320.2168097160143
 20
500.5311959544447
  0
LINE
  5
9E5
330
1F
100
AcDbEntity
  8
INDUSA
  6
Continuous
100
AcDbLine
 10
320.2168097160143
 20
500.5311959544446
 30
0.0
 11
320.2168097160143
 21
500.5391827494931
 31
0.0
  0
LWPOLYLINE
  5
9E6
330
1F
100
AcDbEntity
  8
INDUSA
  6
Continuous
100
AcDbPolyline
 90
        7
 70
   128
 43
0.0
 10
320.2158097160143
 20
500.5401860868888
 10
320.2158271527927
 20
500.5401859343677
 10
320.2161561624423
 20
500.5401239570629
 10
320.2164461772077
 20
500.5399566540736
 10
320.2166651135645
 20
500.5397024812035
 10
320.2167882941443
 20
500.5393893329135
 10
320.2168097160143
 20
500.5391827494931
  0
LINE
  5
9E7
330
1F
100
AcDbEntity
  8
INDUSA
  6
Continuous
100
AcDbLine
 10
320.1898097160143
 20
500.5401860868888
 30
0.0
 11
320.2158097160143
 21
500.5401860868888
 31
0.0
  0
LWPOLYLINE
  5
9E8
330
1F
100
AcDbEntity
  8
INDUSA
  6
Continuous
100
AcDbPolyline
 90
        7
 70
   128
 43
0.0
 10
320.1898097160143
 20
500.5401860868888
 10
320.1897852498396
 20
500.540186387193
 10
320.1894566852705
 20
500.5402506817179
 10
320.1892709192326
 20
500.5403441548565
 10
320.18902231481
 20
500.5405708622878
 10
320.188862705992
 20
500.5408670126828
 10
320.1888097160143
 20
500.5411891889893
  0
LWPOLYLINE
  5
9EB
330
1F
100
AcDbEntity
  8
INDUSA
  6
Continuous
100
AcDbPolyline
 90
        7
 70
   128
 43
0.0
 10
320.1888097160143
 20
500.4843592672931
 10
320.1888263075471
 20
500.4845412187228
 10
320.1888866585471
 20
500.4847450963918
 10
320.1890661490505
 20
500.4850299782143
 10
320.1893298934733
 20
500.4852393423904
 10
320.1896474644089
 20
500.485349076227
 10
320.1898097160143
 20
500.4853623693935
  0
LINE
  5
9F0
330
1F
100
AcDbEntity
  8
INDUSA
  6
Continuous
100
AcDbLine
 10
320.1668097160143
 20
500.4515679226578
 30
0.0
 11
320.1668097160143
 21
500.4311154238094
 31
0.0
  0
LINE
  5
9F5
330
1F
100
AcDbEntity
  8
INDUSA
  6
Continuous
100
AcDbLine
 10
320.1668097160143
 20
500.5427742281411
 30
0.0
 11
320.1668097160143
 21
500.5227742281411
 31
0.0
  0
LINE
  5
9F7
330
1F
100
AcDbEntity
  8
INDUSA
  6
Continuous
100
AcDbLine
 10
320.1668097160143
 20
500.5227742281411
 30
0.0
 11
320.1668097160143
 21
500.5007742281411
 31
0.0
  0
LINE
  5
9F9
330
1F
100
AcDbEntity
  8
INDUSA
  6
Continuous
100
AcDbLine
 10
320.1668097160143
 20
500.5007742281411
 30
0.0
 11
320.1668097160143
 21
500.4515679226578
 31
0.0
  0
LINE
  5
9FF
330
1F
100
AcDbEntity
  8
INDUSA
  6
Continuous
100
AcDbLine
 10
320.1688097160143
 20
500.5527742281412
 30
0.0
 11
320.1858097160143
 21
500.5527742281412
 31
0.0
  0
ARC
  5
A00
330
1F
100
AcDbEntity
  8
INDUSA
  6
Continuous
100
AcDbCircle
 10
320.1688097160143
 20
500.5547742281412
 30
0.0
 40
0.0020000000000002
100
AcDbArc
 50
180.0
 51
270.0
  0
LINE
  5
A01
330
1F
100
AcDbEntity
  8
INDUSA
  6
Continuous
100
AcDbLine
 10
320.1668097160143
 20
500.568584306167
 30
0.0
 11
320.1668097160143
 21
500.5547742281412
 31
0.0
  0
LWPOLYLINE
  5
A02
330
1F
100
AcDbEntity
  8
INDUSA
  6
Continuous
100
AcDbPolyline
 90
        6
 70
   128
 43
0.0
 10
320.1668097160143
 20
500.568584306167
 10
320.1669224585174
 20
500.5692463179398
 10
320.1672479752029
 20
500.5698336929087
 10
320.1677495664585
 20
500.5702802088332
 10
320.1683706814187
 20
500.5705355243782
 10
320.1687747703868
 20
500.5705840018644
  0
ARC
  5
A03
330
1F
100
AcDbEntity
  8
INDUSA
  6
Continuous
100
AcDbCircle
 10
320.1858097160143
 20
500.5497742281412
 30
0.0
 40
0.0030000000000001
100
AcDbArc
 50
0.0
 51
90.0
  0
LINE
  5
A04
330
1F
100
AcDbEntity
  8
INDUSA
  6
Continuous
100
AcDbLine
 10
320.1888097160143
 20
500.5497742281412
 30
0.0
 11
320.1888097160143
 21
500.5411891889893
 31
0.0
  0
LINE
  5
A05
330
1F
100
AcDbEntity
  8
INDUSA
  6
Continuous
100
AcDbLine
 10
320.2268097160143
 20
500.5311959544446
 30
0.0
 11
320.2268097160143
 21
500.5522742281412
 31
0.0
  0
LINE
  5
A07
330
1F
100
AcDbEntity
  8
INDUSA
  6
Continuous
100
AcDbLine
 10
320.1668097160143
 20
500.5547742281412
 30
0.0
 11
320.1668097160143
 21
500.5427742281411
 31
0.0
  0
LINE
  5
A08
330
1F
100
AcDbEntity
  8
INDUSA
  6
Continuous
100
AcDbLine
 10
320.3719658568061
 20
500.4853623693935
 30
0.0
 11
320.2273097160143
 21
500.4853623693935
 31
0.0
  0
LWPOLYLINE
  5
A09
330
1F
100
AcDbEntity
  8
INDUSA
  6
Continuous
100
AcDbPolyline
 90
        4
 70
   128
 43
0.0
 10
320.3793882235433
 20
500.4334082344997
 10
320.3683839378125
 20
500.4334888455292
 10
320.3141620444822
 20
500.434035684693
 10
320.2599412809582
 20
500.4347258887551
  0
LINE
  5
A0A
330
1F
100
AcDbEntity
  8
INDUSA
  6
Continuous
100
AcDbLine
 10
320.1898097160143
 20
500.4753388170976
 30
0.0
 11
320.364861886478
 21
500.4753388170976
 31
0.0
  0
LINE
  5
A0C
330
1F
100
AcDbEntity
  8
INDUSA
  6
Continuous
100
AcDbLine
 10
320.2273097160143
 20
500.5527742281412
 30
0.0
 11
320.397021142196
 21
500.5527742281412
 31
0.0
  0
LINE
  5
A0E
330
1F
100
AcDbEntity
  8
INDUSA
  6
Continuous
100
AcDbLine
 10
320.1888097160143
 20
500.4342259203806
 30
0.0
 11
320.1888097160143
 21
500.4252151612033
 31
0.0
  0
LINE
  5
A10
330
1F
100
AcDbEntity
  8
INDUSA
  6
Continuous
100
AcDbLine
 10
320.1668097160143
 20
500.4311154238094
 30
0.0
 11
320.1668097160143
 21
500.2247742281411
 31
0.0
  0
ARC
  5
A11
330
1F
100
AcDbEntity
  8
INDUSA
  6
Continuous
100
AcDbCircle
 10
320.427007000352
 20
500.2925842400655
 30
0.0
 40
0.0897936798782606
100
AcDbArc
 50
195.6843110569876
 51
269.5392648662199
  0
LWPOLYLINE
  5
A12
330
1F
100
AcDbEntity
  8
INDUSA
  6
Continuous
100
AcDbPolyline
 90
       16
 70
   128
 43
0.0
 10
320.3309185752329
 20
500.2655983237502
 10
320.3334918485595
 20
500.2577127231289
 10
320.3367099444549
 20
500.250067574891
 10
320.3405528195417
 20
500.2427166059862
 10
320.3449918291147
 20
500.2357094934009
 10
320.3499983142477
 20
500.2290959059187
 10
320.3555358035854
 20
500.2229200946677
 10
320.3615678131052
 20
500.217226300333
 10
320.368051050731
 20
500.2120521276784
 10
320.3749422136226
 20
500.2074351690719
 10
320.3821923830376
 20
500.2034053457227
 10
320.3897526316694
 20
500.1999925648333
 10
320.3975697633544
 20
500.1972182387905
 10
320.4069651022392
 20
500.1948158456451
 10
320.4165715616391
 20
500.193329828343
 10
320.4262536499095
 20
500.1927811460034
  0
ARC
  5
A13
330
1F
100
AcDbEntity
  8
INDUSA
  6
Continuous
100
AcDbCircle
 10
320.4262947932803
 20
500.2936350404336
 30
0.0
 40
0.0908415776210731
100
AcDbArc
 50
270.0
 51
332.8844439279219
  0
LWPOLYLINE
  5
A14
330
1F
100
AcDbEntity
  8
INDUSA
  6
Continuous
100
AcDbPolyline
 90
       10
 70
   128
 43
0.0
 10
320.386233877802
 20
500.5111589257673
 10
320.3930163323342
 20
500.501809736042
 10
320.399197798714
 20
500.4920360307543
 10
320.4048399311541
 20
500.4819487643025
 10
320.4127275164744
 20
500.4656418045042
 10
320.4194958769158
 20
500.4488372117888
 10
320.4243168309418
 20
500.4344822371653
 10
320.428361176452
 20
500.4198895887461
 10
320.4316359747882
 20
500.4049144903509
 10
320.4340384294994
 20
500.3897758234013
  0
LWPOLYLINE
  5
A15
330
1F
100
AcDbEntity
  8
INDUSA
  6
Continuous
100
AcDbPolyline
 90
        5
 70
   128
 43
0.0
 10
320.4406609642787
 20
500.2827742281412
 10
320.4370353360114
 20
500.3029563495015
 10
320.4335191315699
 20
500.3238249686997
 10
320.4284985434582
 20
500.3564330792158
 10
320.4241183101224
 20
500.3885052653104
  0
LINE
  5
A17
330
1F
100
AcDbEntity
  8
INDUSA
  6
Continuous
100
AcDbLine
 10
320.4150360867006
 20
500.5127742281411
 30
0.0
 11
320.5201121348746
 21
500.5127742281411
 31
0.0
  0
LINE
  5
A1A
330
1F
100
AcDbEntity
  8
INDUSA
  6
Continuous
100
AcDbLine
 10
320.5131266136649
 20
500.5627742281411
 30
0.0
 11
320.367263494738
 21
500.5627742281411
 31
0.0
  0
ARC
  5
C7D
330
1F
100
AcDbEntity
  8
INDUSA
100
AcDbCircle
 10
318.0587091269676
 20
499.7117139464194
 30
0.0
 40
0.9079519698341346
100
AcDbArc
 50
75.30441322376717
 51
104.6941498336109
  0
ARC
  5
C7F
330
1F
100
AcDbEntity
  8
INDUSA
  6
Continuous
100
AcDbCircle
 10
318.0246423006703
 20
500.4117384319001
 30
0.0
 40
0.1
100
AcDbArc
 50
110.2113579902827
 51
184.2435087821361
  0
ARC
  5
C80
330
1F
100
AcDbEntity
  8
INDUSA
  6
Continuous
100
AcDbCircle
 10
318.0927828906608
 20
500.4117384319001
 30
0.0
 40
0.1
100
AcDbArc
 50
355.756491217863
 51
69.788642009718
  0
LINE
  5
C8D
330
1F
100
AcDbEntity
  8
INDUSA
100
AcDbLine
 10
319.2265628570344
 20
500.5796858295351
 30
0.0
 11
319.3471429116229
 21
500.573785160593
 31
0.0
  0
LINE
  5
C8E
330
1F
100
AcDbEntity
  8
INDUSA
100
AcDbLine
 10
319.2513235978842
 20
500.565785160593
 30
0.0
 11
319.3591805349678
 21
500.565785160593
 31
0.0
  0
LINE
  5
C8F
330
1F
100
AcDbEntity
  8
INDUSA
100
AcDbLine
 10
318.2805489229934
 20
500.5921478646807
 30
0.0
 11
318.2077275404569
 21
500.1680761313687
 31
0.0
  0
ARC
  5
C93
330
1F
100
AcDbEntity
  8
INDUSA
  6
Continuous
100
AcDbCircle
 10
318.0555547434524
 20
500.4066094302806
 30
0.0
 40
0.035
100
AcDbArc
 50
178.4900549687126
 51
268.7895153620143
  0
ARC
  5
C94
330
1F
100
AcDbEntity
  8
INDUSA
  6
Continuous
100
AcDbCircle
 10
318.0618739675661
 20
500.4064759045292
 30
0.0
 40
0.035
100
AcDbArc
 50
268.7895153620145
 51
1.509945031287377
  0
ARC
  5
C95
330
1F
100
AcDbEntity
  8
INDUSA
100
AcDbCircle
 10
318.0587125956656
 20
500.8963395621763
 30
0.0
 40
0.7433525936073596
100
AcDbArc
 50
258.4359447197316
 51
281.5640552802684
  0
LINE
  5
C96
330
1F
100
AcDbEntity
  8
INDUSA
100
AcDbLine
 10
317.9096976508743
 20
500.1680761313687
 30
0.0
 11
317.8368759806267
 21
500.5921495401514
 31
0.0
  0
LWPOLYLINE
  5
C98
330
1F
100
AcDbEntity
  8
INDUSA
  6
Continuous
100
AcDbPolyline
 90
        8
 70
   128
 43
0.0
 10
318.2887043901776
 20
500.5900521302613
 10
318.2886924311122
 20
500.5900555101563
 10
318.2886868245522
 20
500.5900570809047
 10
318.2886828558267
 20
500.5900581874904
 10
318.2886792290699
 20
500.5900591949035
 10
318.2886756828838
 20
500.5900601764675
 10
318.2886714866581
 20
500.5900613340751
 10
318.288670129595
 20
500.590061707471
  0
ARC
  5
C9A
330
1F
100
AcDbEntity
  8
INDUSA
100
AcDbCircle
 10
317.829646388447
 20
500.5863249589823
 30
0.0
 40
0.0038527652870101
100
AcDbArc
 50
108.8942861312629
 51
191.1734179618797
  0
LINE
  5
C9C
330
1F
100
AcDbEntity
  8
INDUSA
100
AcDbLine
 10
318.5911288382722
 20
500.5737943165936
 30
0.0
 11
318.9162869576569
 21
500.5737894245577
 31
0.0
  0
LINE
  5
C9D
330
1F
100
AcDbEntity
  8
INDUSA
100
AcDbLine
 10
318.9121304202365
 20
500.5666790194517
 30
0.0
 11
318.9173539325535
 21
500.548488802587
 31
0.0
  0
ARC
  5
C9E
330
1F
100
AcDbEntity
  8
INDUSA
100
AcDbCircle
 10
318.8971416312204
 20
500.5420527552931
 30
0.0
 40
0.0212122565973102
100
AcDbArc
 50
341.6270843499872
 51
17.66263476819229
  0
ARC
  5
C9F
330
1F
100
AcDbEntity
  8
INDUSA
100
AcDbCircle
 10
318.610258999502
 20
500.5420530274225
 30
0.0
 40
0.0212540115596888
100
AcDbArc
 50
162.3739734857889
 51
198.3363073972429
  0
LINE
  5
CA0
330
1F
100
AcDbEntity
  8
INDUSA
100
AcDbLine
 10
318.5952263076977
 20
500.5666790194517
 30
0.0
 11
318.5900027953806
 21
500.548488802587
 31
0.0
  0
LINE
  5
CA1
330
1F
100
AcDbEntity
  8
INDUSA
100
AcDbLine
 10
319.7855237301247
 20
500.5666790194517
 30
0.0
 11
319.7875986713124
 21
500.5484888025872
 31
0.0
  0
ARC
  5
CA2
330
1F
100
AcDbEntity
  8
INDUSA
100
AcDbCircle
 10
319.7596113889058
 20
500.5481021288726
 30
0.0
 40
0.027989953431752
100
AcDbArc
 50
332.9349330139884
 51
0.7915510200875442
  0
ENDSEC
  0
SECTION
  2
OBJECTS
  0
DICTIONARY
  5
C
330
0
100
AcDbDictionary
281
     1
  3
ACAD_COLOR
350
CAA
  3
ACAD_GROUP
350
D
  3
ACAD_LAYOUT
350
1A
  3
ACAD_MATERIAL
350
CA9
  3
ACAD_MLINESTYLE
350
17
  3
ACAD_PLOTSETTINGS
350
19
  3
ACAD_PLOTSTYLENAME
350
E
  3
ACAD_TABLESTYLE
350
CAB
  3
ACDBHEADERROUNDTRIPXREC
350
CB2
  3
AcDbVariableDictionary
350
C88
  3
ASE_INDEX_DICTIONARY
350
C84
  0
DICTIONARY
  5
CAA
102
{ACAD_REACTORS
330
C
102
}
330
C
100
AcDbDictionary
281
     1
  0
DICTIONARY
  5
D
102
{ACAD_REACTORS
330
C
102
}
330
C
100
AcDbDictionary
281
     1
  0
DICTIONARY
  5
1A
102
{ACAD_REACTORS
330
C
102
}
330
C
100
AcDbDictionary
281
     1
  3
Layout1
350
1E
  3
Layout2
350
26
  3
Model
350
22
  0
DICTIONARY
  5
CA9
102
{ACAD_REACTORS
330
C
102
}
330
C
100
AcDbDictionary
281
     1
  0
DICTIONARY
  5
17
102
{ACAD_REACTORS
330
C
102
}
330
C
100
AcDbDictionary
281
     1
  3
Standard
350
18
  0
DICTIONARY
  5
19
102
{ACAD_REACTORS
330
C
102
}
330
C
100
AcDbDictionary
281
     1
  0
ACDBDICTIONARYWDFLT
  5
E
102
{ACAD_REACTORS
330
C
102
}
330
C
100
AcDbDictionary
281
     1
  3
Normal
350
F
100
AcDbDictionaryWithDefault
340
F
  0
DICTIONARY
  5
CAB
102
{ACAD_REACTORS
330
C
102
}
330
C
100
AcDbDictionary
281
     1
  3
Standard
350
CAC
  0
DICTIONARY
  5
CB2
102
{ACAD_REACTORS
330
C
102
}
330
C
100
AcDbDictionary
281
     1
  0
DICTIONARY
  5
C88
102
{ACAD_REACTORS
330
C
102
}
330
C
100
AcDbDictionary
281
     1
  3
CTABLESTYLE
350
CAF
  3
DIMASSOC
350
C8A
  3
HIDETEXT
350
C89
  3
PROJECTNAME
350
CB0
  0
DICTIONARY
  5
C84
102
{ACAD_REACTORS
330
C
102
}
330
C
100
AcDbDictionary
281
     1
  3
ASEBlockHierarchyIndexRecord
350
C86
1001
DCO15
1040
1563195170.968
  0
LAYOUT
  5
1E
102
{ACAD_XDICTIONARY
360
CB3
102
}
102
{ACAD_REACTORS
330
1A
102
}
330
1A
100
AcDbPlotSettings
  1

  2
PLOTER 500
  4

  6

 40
0.0
 41
0.0
 42
0.0
 43
0.0
 44
0.0
 45
0.0
 46
0.0
 47
0.0
 48
0.0
 49
0.0
140
0.0
141
0.0
142
1.0
143
1.0
 70
   688
 72
     0
 73
     0
 74
     5
  7

 75
    16
147
1.0
148
0.0
149
0.0
100
AcDbLayout
  1
Layout1
 70
     1
 71
     1
 10
0.0
 20
0.0
 11
420.0
 21
297.0
 12
0.0
 22
0.0
 32
0.0
 14
1.000000000000000E+20
 24
1.000000000000000E+20
 34
1.000000000000000E+20
 15
-1.000000000000000E+20
 25
-1.000000000000000E+20
 35
-1.000000000000000E+20
146
0.0
 13
0.0
 23
0.0
 33
0.0
 16
1.0
 26
0.0
 36
0.0
 17
0.0
 27
1.0
 37
0.0
 76
     0
330
1B
  0
LAYOUT
  5
26
102
{ACAD_XDICTIONARY
360
CB7
102
}
102
{ACAD_REACTORS
330
1A
102
}
330
1A
100
AcDbPlotSettings
  1

  2
PLOTER 500
  4

  6

 40
0.0
 41
0.0
 42
0.0
 43
0.0
 44
0.0
 45
0.0
 46
0.0
 47
0.0
 48
0.0
 49
0.0
140
0.0
141
0.0
142
1.0
143
1.0
 70
   688
 72
     0
 73
     0
 74
     5
  7

 75
    16
147
1.0
148
0.0
149
0.0
100
AcDbLayout
  1
Layout2
 70
     1
 71
     2
 10
0.0
 20
0.0
 11
12.0
 21
9.0
 12
0.0
 22
0.0
 32
0.0
 14
0.0
 24
0.0
 34
0.0
 15
0.0
 25
0.0
 35
0.0
146
0.0
 13
0.0
 23
0.0
 33
0.0
 16
1.0
 26
0.0
 36
0.0
 17
0.0
 27
1.0
 37
0.0
 76
     0
330
23
  0
LAYOUT
  5
22
102
{ACAD_XDICTIONARY
360
CB5
102
}
102
{ACAD_REACTORS
330
1A
102
}
330
1A
100
AcDbPlotSettings
  1

  2
PLOTER 500
  4

  6

 40
0.0
 41
0.0
 42
0.0
 43
0.0
 44
0.0
 45
0.0
 46
0.0
 47
0.0
 48
0.0
 49
0.0
140
0.0
141
0.0
142
1.0
143
1.0
 70
  1712
 72
     0
 73
     0
 74
     0
  7

 75
     0
147
1.0
148
0.0
149
0.0
100
AcDbLayout
  1
Model
 70
     1
 71
     0
 10
0.0
 20
0.0
 11
12.0
 21
9.0
 12
0.0
 22
0.0
 32
0.0
 14
0.0
 24
0.0
 34
0.0
 15
0.0
 25
0.0
 35
0.0
146
0.0
 13
0.0
 23
0.0
 33
0.0
 16
1.0
 26
0.0
 36
0.0
 17
0.0
 27
1.0
 37
0.0
 76
     0
330
1F
  0
MLINESTYLE
  5
18
102
{ACAD_REACTORS
330
17
102
}
330
17
100
AcDbMlineStyle
  2
STANDARD
 70
     0
  3

 62
   256
 51
90.0
 52
90.0
 71
     2
 49
0.5
 62
   256
  6
BYLAYER
 49
-0.5
 62
   256
  6
BYLAYER
  0
ACDBPLACEHOLDER
  5
F
102
{ACAD_REACTORS
330
E
102
}
330
E
  0
TABLESTYLE
  5
CAC
102
{ACAD_REACTORS
330
CAB
102
}
330
CAB
100
AcDbTableStyle
  3
Standard
 70
     0
 71
     0
 40
1.5
 41
1.5
280
     0
281
     0
  7
Standard
140
4.5
170
     2
 62
     0
 63
     7
283
     0
274
    -2
284
     1
 64
     0
275
    -2
285
     1
 65
     0
276
    -2
286
     1
 66
     0
277
    -2
287
     1
 67
     0
278
    -2
288
     1
 68
     0
279
    -2
289
     1
 69
     0
  7
Standard
140
6.0
170
     5
 62
     0
 63
     7
283
     0
274
    -2
284
     1
 64
     0
275
    -2
285
     1
 65
     0
276
    -2
286
     1
 66
     0
277
    -2
287
     1
 67
     0
278
    -2
288
     1
 68
     0
279
    -2
289
     1
 69
     0
  7
Standard
140
4.5
170
     5
 62
     0
 63
     7
283
     0
274
    -2
284
     1
 64
     0
275
    -2
285
     1
 65
     0
276
    -2
286
     1
 66
     0
277
    -2
287
     1
 67
     0
278
    -2
288
     1
 68
     0
279
    -2
289
     1
 69
     0
  0
DICTIONARYVAR
  5
CAF
102
{ACAD_REACTORS
330
C88
102
}
330
C88
100
DictionaryVariables
280
     0
  1
STANDARD
  0
DICTIONARYVAR
  5
C8A
102
{ACAD_REACTORS
330
C88
102
}
330
C88
100
DictionaryVariables
280
     0
  1
2
  0
DICTIONARYVAR
  5
C89
102
{ACAD_REACTORS
330
C88
102
}
330
C88
100
DictionaryVariables
280
     0
  1
1
  0
DICTIONARYVAR
  5
CB0
102
{ACAD_REACTORS
330
C88
102
}
330
C88
100
DictionaryVariables
280
     0
  1

  0
XRECORD
  5
C86
102
{ACAD_REACTORS
330
C84
102
}
330
C84
100
AcDbXrecord
280
     1
  0
DICTIONARY
  5
CB3
330
1E
100
AcDbDictionary
280
     1
281
     1
  3
ACAD_XREC_ROUNDTRIP
360
CB4
  0
DICTIONARY
  5
CB7
330
26
100
AcDbDictionary
280
     1
281
     1
  3
ACAD_XREC_ROUNDTRIP
360
CB8
  0
DICTIONARY
  5
CB5
330
22
100
AcDbDictionary
280
     1
281
     1
  3
ACAD_XREC_ROUNDTRIP
360
CB6
  0
XRECORD
  5
CB4
102
{ACAD_REACTORS
330
CB3
102
}
330
CB3
100
AcDbXrecord
280
     1
102
SHADEPLOT
 70
     0
102
SHADEPLOTRESLEVEL
 70
     2
102
SHADEPLOTCUSTOMDPI
 70
   300
  0
XRECORD
  5
CB8
102
{ACAD_REACTORS
330
CB7
102
}
330
CB7
100
AcDbXrecord
280
     1
102
SHADEPLOT
 70
     0
102
SHADEPLOTRESLEVEL
 70
     2
102
SHADEPLOTCUSTOMDPI
 70
   300
  0
XRECORD
  5
CB6
102
{ACAD_REACTORS
330
CB5
102
}
330
CB5
100
AcDbXrecord
280
     1
102
SHADEPLOT
 70
     0
102
SHADEPLOTRESLEVEL
 70
     2
102
SHADEPLOTCUSTOMDPI
 70
   300
  0
ENDSEC
  0
EOF
